tablaturas, partituras y acordes para guitarra
Busca por banda/artista:
 
y/o título de la canción:
A B C D E F G H I J K L M N O P Q R S T U V W X Y Z 0 1 2 3 4 5 6 7 8 9 / Top 100 tabs
Categorías
Usuarios
usuario:
Darse de alta
password:
Artistas más visitados
Publicidad
TOP acordes y tablaturas de Rata Blanca


Estás en: Inicio > Letra R > Acordes y tablaturas de Rata Blanca > Chico Callejero
Chico Callejero
de Rata Blanca
Puntúa este acorde/tab:      
(0.5/5)
Reportar este acorde/tab
  Añadir a tus favoritos
  Imprimir
Bueno aca sigo poniéndome las pilas y mandando tabs, bajo la siempre
aclaración de que hago esto a mano y que no lo hago prolijo ni bien,
y me es medio fastidioso y no tengo paciencia asi que gracias por la
comprensión; espero les guste lo token y todo eso, con paciencia y
escuchen el tema que así sale y con mucha confianza y pasión, aguante
Rata. Cualquier cosa <negrod@hotmail.com> a Damian.


INTRO  (todo machacado en E y el arreglo final al entrar el tema)

                                   c
 e|-----------------------------------------|
 B|-----------------------------------------|
 G|--------------------------------5--------|
 D|--------------------------------5--------|
 A|--------------------------------3--------|
 E|---0000000000000----3--2-----------------|


Bueno ahora en los versos les pongo los tonos al que marco agudo es el
tono en 5ta con tónica en la 4ta cuerda; igual los anoto, todos van
con un machaque en la gta cuerda de por medio, oigan el tema y sale.
No me hagan laburar y hacer todo en tab.


RIFF DE LA INTRO  (ese que nos vuele locos)

 E5  D5  E5       -       D5  C5   E5


Al terminar hace   E5  D5  E5  -  G  F# E   agudos todos esto es

        G      F#       E
 e|-----------------------------------------|
 B|-----8------7--------5-------------------|
 G|-----7------6--------4-------------------|
 D|-----5------4--------2-------------------|
 A|-----------------------------------------|
 E|-----------------------------------------|


VERSOS    El g de aca es el agudo.

 G - D - E  /  G - C - D     A - G - D
               G - D - E     G - D - E  /  G - C - D     A G B


Aca va el arreglo que les pongo al final

 C  -  D  B  E E C A   C B    (estos acordes machacados)


ARREGLO (cae en c )

 D|--------------------5--------------------|
 A|-----5 4-2----------3--------------------|
 E|------------5 1--------------------------|


BASE DEL SOLO:

 e c b arreglo   c a b *2   CBC     021 (en 4ta cuerda)


FINAL:

 E -S-- D E -S-- D E -S- D C C E      (-S-- es un slide y va un 
machaque en la 6ta)




Se que parece complejo y está pasado mal, pero escuchando 
y estando atento a los cambios sale. YA TIENEN EL MAIL. 
Espero no sea tan desprolijo.
		   
AcordesyTabs.com © 2008 Acordes y Tablaturas para guitarra. Tabs and Chords for guitar. Aviso Legal - Contacto
El uso de este sitio está sujeto a la aceptación de los términos y condiciones (38 usuarios online)