tablaturas, partituras y acordes para guitarra
Busca por banda/artista:
 
y/o título de la canción:
A B C D E F G H I J K L M N O P Q R S T U V W X Y Z 0 1 2 3 4 5 6 7 8 9 / Top 100 tabs
Categorías
Usuarios
usuario:
Darse de alta
password:
Artistas más visitados
Publicidad
TOP acordes y tablaturas de Evolución


Estás en: Inicio > Letra E > Acordes y tablaturas de Evolución > Chismólogos
Chismólogos
de Evolución
Puntúa este acorde/tab:      
(0.4/5)
Reportar este acorde/tab
  Añadir a tus favoritos
  Imprimir


	* Afinar la guitarra medio tono abajo *



	INTRO:

	
	  Bm     A           F#    Bm                     A
	|-------------------------------------------------------------|
	|------------------------------3p2-----3p2--------------------|
	|------------------2---3~--4~------4-------4------------------|
	|--------0---2--4-----------------------------4--2--4--2------|
	|--2--4-------------------------------------------------------|
	|-------------------------------------------------------------|


	   Bm                    F#            Bm
	|-----------------------------------------------|
	|--3p2-----3p2-----------3p2------3p2-----------|
	|-------4-------4-------------4--------4--------|
	|------------------4----------------------------|
	|-----------------------------------------------|
	|-----------------------------------------------|

	 	
	 A						   Bm
	|--15--14--12----------------------------------------------------------|
	|--------------15--14--12--------------------------------------12~-----|
	|--------------------------14--12--11----------------------11----------|
	|--------------------------------------14--12--11------12--------------|
	|--------------------------------------------------14------------------|
	|----------------------------------------------------------------------|
	




	  Bm	      A           F#       Bm
	Yo no comento nada de sus vidas aburridas
		     A
	tampoco me interesa conocerlos
	 Bm	   A		 F#	    Bm
	no conozco nada de sus perversas fantasías
			  A
	pero ustedes no conocen el amor

	    Bm        A
	Por eso sus mujeres
		  F#		Bm
	pasan frustradas y reprimidas
                              A
	ocultando con sus cirugías sus complejos
	   Bm             A 
	reunidas con sus amigas 
		F#		Bm
	hablando mal de otras amigas
			    A	     Bm
	que no quieren asistir a la reunión

	      A	 		    Bm
	Que aquel drogadicto que mujeriego que soñador
             F#
	y aquellas envidiosas
	A                             D
	que se divierten disfrutan y vive su cazador
	    F#					A	 Bm
	y aquellas son presas, presas que él no quiere cazar

	   Em
	Quisiera entregarle un poquito de luz
	      Bm        F#
	a ese pobre infeliz
		  Em
	que hasta miente para hundirme
				   F#
	en lugar de aceptar que no puede salir


	D - A - F# - G


	Bm	      A                F#	    Bm
	No me venga hablando de hipocresía, qué ironía
			    A
	si usted vive de las vidas de nosotros
	    Bm		     A              F#		    Bm
	tal vez ya va siendo hora de que descubra que tiene vida
		     A	       Bm
	y aprenda a vivirla mejor
	
		A		      Bm
	Como aquel drogadicto que mujeriego que soñador
		F#
	y no aquellos mentirosos
	A				D
	que se divierten y disfruta vive es un cazador
	     F#				     A          Bm
	y aquellos son presos, presos que no quieren salir



	A INTRO


	 Bm          A			F#            Bm
	Mírese no me mire ya estoy muy bien y nada le pido
			   A
	más que deje de meterse con mi vida
	Bm		  A
	tiene mucho que hacer
		      F#	   Bm
	más que preocuparse por mi vida 
		      A	     Bm
	ocúpese de la suya mejor
		A			 Bm
	Porque yo un drogadicto yo un mujeriego yo un soñador
            F#
	y a usted que le importa
	 A
	sólo soy un hombre libre
		  D
	porque salí de esa prisión
	  F#
	y usted aún sigue dentro
		   A	   Bm
	espero que pueda salir


	Quisiera entregarle...

	Yo no comento nada...
		   
AcordesyTabs.com © 2008 Acordes y Tablaturas para guitarra. Tabs and Chords for guitar. Aviso Legal - Contacto
El uso de este sitio está sujeto a la aceptación de los términos y condiciones (81 usuarios online)