tablaturas, partituras y acordes para guitarra
Busca por banda/artista:
 
y/o título de la canción:
A B C D E F G H I J K L M N O P Q R S T U V W X Y Z 0 1 2 3 4 5 6 7 8 9 / Top 100 tabs
Categorías
Usuarios
usuario:
Darse de alta
password:
Artistas más visitados
Publicidad
TOP acordes y tablaturas de La Nueva Luna


Estás en: Inicio > Letra L > Acordes y tablaturas de La Nueva Luna > Choque de cometas
Choque de cometas
de La Nueva Luna
Puntúa este acorde/tab:      
(0.7/5)
Reportar este acorde/tab
  Añadir a tus favoritos
  Imprimir
 

                 segunda parte  
  _____________________|_________________________
 |                                              |
                              primera parte
  __________________________________|___________________________________
 |                                                                     |
   2 veces                             2 veces        1º parte
1|----------|-----------------------|-----------|----------------------
2|-2-3-2-3--|---3-6-6-6-4-6-4--4-4-4|-3-4-3-4---|--4-4-4-8-8-8-6-8-6-3-
3|--------3-|--3-3-----------5--5-5-|--------5-2|--5-5-5---------------
4|---------5|-5---------------------|-----------|----------------------
5|----------|-----------------------|-----------|----------------------
6|----------|-----------------------|-----------|----------------------


    La segunda parte se engancha con esta

1|---------------5-6--6-6-------------------3-3-3-3--------------3---
2|4-4-4-8-8-8-6-8----3-3-3-6-6-6-4-6-----4-6-----6-6-3--3-3-6-3-6----
3|5-5-5-----------------------------5-5-5----------------------------
4|--------------------------------------------------------------------
5|--------------------------------------------------------------------
6|--------------------------------------------------------------------

1|-----------------------------------------------------
2|6-6-6-4-6-4-----4-6-7-8----------------3-4-5-6-5-4---
3|-----------5-5-5-----------------3-4-5-------------5-
4|---------------------------3-4-5---------------------
5|-----------------------------------------------------
6|-----------------------------------------------------



Bueno creo que se entiende, cualquier duda avisen al mail
Por los menos a mi me parece que es asi
criticas bienvenidas

No somos mediocres,solo somos lo mejor de lo peor
Los pibes del 7
		   
AcordesyTabs.com © 2008 Acordes y Tablaturas para guitarra. Tabs and Chords for guitar. Aviso Legal - Contacto
El uso de este sitio está sujeto a la aceptación de los términos y condiciones (32 usuarios online)