tablaturas, partituras y acordes para guitarra
Busca por banda/artista:
 
y/o título de la canción:
A B C D E F G H I J K L M N O P Q R S T U V W X Y Z 0 1 2 3 4 5 6 7 8 9 / Top 100 tabs
Categorías
Usuarios
usuario:
Darse de alta
password:
Artistas más visitados
Publicidad
TOP acordes y tablaturas de Counting Crows


Mr Jones
de Counting Crows
Puntúa este acorde/tab:      
(0.5/5)
Reportar este acorde/tab
  Añadir a tus favoritos
  Imprimir
Album: August And Everything After
Tuning: standard (E-A-D-G)
Tabber: BearPV (fuzzisslimshady@hotmail.com)

Lead in with

G--------------------------------------
D--------------------------------------
A-10-10-10-10-10-10-10-10-10-----------
E--------------------------------------

Verse Part 1

G--------------------------------------------
D--------------------------------------------
A--12-12-12-12-p8-8-8-8-8-5-5-5-5-10-10-10-10
E--------------------------------------------

Verse Part 2

G--------------------------------------
D--------------------------------------
A--12-12-12-12-p8-8-8-8-8-10-10-10-10--
E--------------------------------------

Chorus

G--------------------------------------
D--------------------------------------
A--------------------------------------
E--8-8-8-8-8--1-1-1-1-1-1-3-3-3-3-3-/8

Middle Bit (I will never be a liar...)

G---------------------------------------
D---------------------------------------
A---------------------------------------
E-5-5-5-5--1-1-1-1-/-5-5-5-5--3-3-3-3-
		   
AcordesyTabs.com © 2008 Acordes y Tablaturas para guitarra. Tabs and Chords for guitar. Aviso Legal - Contacto
El uso de este sitio está sujeto a la aceptación de los términos y condiciones (24 usuarios online)