tablaturas, partituras y acordes para guitarra
Busca por banda/artista:
 
y/o título de la canción:
A B C D E F G H I J K L M N O P Q R S T U V W X Y Z 0 1 2 3 4 5 6 7 8 9 / Top 100 tabs
Categorías
Usuarios
usuario:
Darse de alta
password:
Artistas más visitados
Publicidad
TOP acordes y tablaturas de Divididos


Estás en: Inicio > Letra D > Acordes y tablaturas de Divididos > Cielito Lindo
Cielito Lindo
de Divididos
Puntúa este acorde/tab:      
(0.2/5)
Reportar este acorde/tab
  Añadir a tus favoritos
  Imprimir
G|------------------------------------------------------|
D|-----------------7-77---------7-77--------------------|
A|---10/5-5-50-35-5----5-50-35-5----5-23-3---57---5-55--|
E|----------------------------------------3-3--3-3----3-|intro
verso
G|-------------------------------------------------------------------|
D|-------------------------------------------------------------------|
A|--4-5---5-7--2---5-50-35--50-345--50-35--50-35--52-3---5-7---------|
E|-3---3-3---3--35------------------------------------3-3---3-50-53--|x2


G|------------------------------------------------------------------------------------------------------------|
D|------------------------------------------------------------------------------------------------------------|
A|--5-55-----------5-75-50-435-50-35-52-3----5-7----5-55--------50-3345--50-35-50-345-50-35-50-3----5-7-------|
E|-3----3-50-543--3----------------------3--3---3--3----3-50-53---------------------------------3-3----5-50-43|


G|------------------------------------------------------------------------------------------------------|
D|------------------------------------------------------------------------------------------------------|
A|--5-55-----------5-75--50-345-50-35-52-3----5-7----5-55--------50-3345-50-35-50-345-50-35-50-3----5-7-|
E|-3----3-50-543--3-----------------------3--3---3--3----3-50-53--------------------------------3-3----3|




G|--------------------------------------------------------------------------------------------|
D|--------------------------------------------------------------------------------------------|
A|--------------------------332332332332332332332-554554554554554554554-----------------------|
E|-3/x332332332332332332332-------------------------------------------52332332332332332332332|

G|------------------------------------------------------------------------------------------|
D|------------------------------------------------------------------------------------------|
A|------------------------332332332332332332332-554554554554554554554-----------------------|
E|-52332332332332332332332-------------------------------------------52332332332332332332332|

G|--------------------------------------------------------------------------------------------|
D|--------------------------------------------------------------------------------------------|
A|--------------------------332332332332332332332-554554554554554554554-----------------------|
E|-3/x332332332332332332332-------------------------------------------52332332332332332332332|
 
G|--------------------------------------------------7-66-44--------------------------|
D|------------------------------------------------75--------77-55-33-----------------|
A|-----------------------33233233233233--2-3-4-5-5------------------77-55-33-22-----5|
E|--332332332332332332332------------------------------------------------------55-33-|

Hola esta es super correccion del tab anterior ya que casi nada pegaba eso creo, bueno no es muy dificil 
solo hay que escuchar la cancion y andar probando. 
Este tab se lo quiero dedicar a mi amor dulcy. 
mucha suerte con el tab!
		   
AcordesyTabs.com © 2008 Acordes y Tablaturas para guitarra. Tabs and Chords for guitar. Aviso Legal - Contacto
El uso de este sitio está sujeto a la aceptación de los términos y condiciones (26 usuarios online)