tablaturas, partituras y acordes para guitarra
Busca por banda/artista:
 
y/o título de la canción:
A B C D E F G H I J K L M N O P Q R S T U V W X Y Z 0 1 2 3 4 5 6 7 8 9 / Top 100 tabs
Categorías
Usuarios
usuario:
Darse de alta
password:
Artistas más visitados
Publicidad
TOP acordes y tablaturas de Pedro Infante


Cien años
de Pedro Infante
Puntúa este acorde/tab:      
(0.4/5)
Reportar este acorde/tab
  Añadir a tus favoritos
  Imprimir
Les mando esta intro porque creo que la que tienen en el archivo 
esta mal en la primera parte, y en la segunda va una octava arriba.


----|--7--7--7--7--|--7--7--7--6--5----|
-0--|--------------|-------------------|
-7--|--7--7--7--7--|--7--7--7--6--5----|
----|--------------|-------------------|
----|--------------|-------------------|
----|--------------|-------------------|

                                                                    
--3-|--14--|--12--------------|
----|------|------15--14--12--|
--4-|------|------------------|
----|------|------------------|
----|------|------------------|
----|------|------------------|


                                                     
-----------------------------|------|-3-||
-----------------------------|------|-3-||
--14--12---------------------|------|-4-||
------------12(h)14(p)12-----|--12--|-4-||
-------------------------15--|------|-5-||
-----------------------------|------|-3-||
		   
AcordesyTabs.com © 2008 Acordes y Tablaturas para guitarra. Tabs and Chords for guitar. Aviso Legal - Contacto
El uso de este sitio está sujeto a la aceptación de los términos y condiciones (32 usuarios online)