tablaturas, partituras y acordes para guitarra
Busca por banda/artista:
 
y/o título de la canción:
A B C D E F G H I J K L M N O P Q R S T U V W X Y Z 0 1 2 3 4 5 6 7 8 9 / Top 100 tabs
Categorías
Usuarios
usuario:
Darse de alta
password:
Artistas más visitados
Publicidad
TOP acordes y tablaturas de Panda
:: Hola - Panda


Estás en: Inicio > Letra P > Acordes y tablaturas de Panda > Claro que No
Claro que No
de Panda
Puntúa este acorde/tab:      
(1/5)
Reportar este acorde/tab
  Añadir a tus favoritos
  Imprimir
Intro :
 
E--------
B--------
G---4----
D---4----
A---6----
E--------
Guitarra 1
E------------------I
B------------------I
G---------6--8-----I
D---4--6--6--8-----I Se Repite 4 veces
A---4--6--4--6-----I
E---2--4-----------I

Guitarra 2
 (Esta parte la toca el teclado pero aqui la saque en guitarra)

E---9-8-6---------------------9-8-6------------------
B----------9---7-6---7-6-4-2--------9---7-6--7-6-4---
G----------------------------------------------------
D----------------------------------------------------
A----------------------------------------------------
E----------------------------------------------------

E---9-8-6--------------------------------------------
B----------9---7-6---7-6-4-2--4/6-4-6-4-2--4--2------
G----------------------------------------------------
D----------------------------------------------------
A----------------------------------------------------
E----------------------------------------------------

Verso : 
 Se repite 4 veces
E--------------------------------------------------------------
B--------------------------------------------------------------
G--------------------------------------------------------------
D---6--------------8-------------------------------------------
A---4-4-4-4-4-4-4--6-6-6-6-6-6-6--4--------------6--6-4-3h4p3--
E---------------------------------2-2-2-2-2-2-2--4-------------
      p.m .......    p.m .......    p.m .......    

E------------------I
B------------------I
G---------6--8-----I
D---4--6--6--8-----I Se Repite 4 veces
A---4--6--4--6-----I
E---2--4-----------I

Guitarra 1
E--------------I                   E------------
B--------------I                   B------------
G--------------I                   G------------
D--------6-----I Se repite 4 veces D------------  Al final se toca esto  
A--4--6--4-----I                   A--4-4-------
E--2--4--------I                   E--2-4-------
El te mintio........

Guitarra 2
E-------------------
B--------9----------
G----6-7---7-6------  Se repite 8 veces   
D--6----------------
A-------------------
E-------------------

Coro : 
E-------------------
B-------------------
G-------------------
D--6-8--------------
A--4-6--4---6-6-6---
E-------2---4-4-4---
            Pm...
Claro que no.............


Guitarra 1
E-----------------I
B-----------------I
G---6-8-----------I
D---6-8--4-6------I Se Repite 4 veces
A---4-6--4-6------I
E--------2-4------I

Guitarra 2

E---9-8-6---------------------9-8-6------------------
B----------9---7-6---7-6-4-2--------9---7-6--7-6-4---
G----------------------------------------------------
D----------------------------------------------------
A----------------------------------------------------
E----------------------------------------------------

E---9-8-6--------------------------------------------
B----------9---7-6---7-6-4-2--4/6-4-6-4-2--4--2------
G----------------------------------------------------
D----------------------------------------------------
A----------------------------------------------------
E----------------------------------------------------

Verso 2: 
 Se repite 4 veces
E--------------------------------------------------------------
B--------------------------------------------------------------
G--------------------------------------------------------------
D---6--------------8-------------------------------------------
A---4-4-4-4-4-4-4--6-6-6-6-6-6-6--4--------------6--6-4-3h4p3--
E---------------------------------2-2-2-2-2-2-2--4-------------
      p.m .......    p.m .......    p.m .......    

E------------------I
B------------------I
G---------6--8-----I
D---4--6--6--8-----I Se Repite 4 veces
A---4--6--4--6-----I
E---2--4-----------I

Guitarra 1
E--------------I                   E----------------
B--------------I                   B----------------
G--------------I                   G----------------
D--------6-----I Se repite 4 veces D--------------6- Al final se toca esto  
A--4--6--4-----I                   A--8-6-4-0-4-6-4-
E--2--4--------I                   E----------------
El te mintio........                  Pm.........

Guitarra 2
E-------------------
B--------9----------
G----6-7---7-6------  Se repite 8 veces   
D--6----------------
A-------------------
E-------------------


Coro : 
E-------------------
B-------------------
G-------------------  Se repite 4 veces
D--6-8--------------
A--4-6--4---6-6-6---
E-------2---4-4-4---
            Pm...
Outro :
Guitarra 1
E-----------------6-9--------------------
B--7/9--7-5-9-7-5-----9--7-5h5-----------
G---------------------------------------- Se repite 4 veces
D----------------------------------------
A----------------------------------------
E----------------------------------------

Guitarra 2
E----------------------------------------
B----------------------------------------
G---------------------------------------- Se repite 4 veces
D---6-6-x-x-6-----6-6--------------------
A---4-4-x-x-4--4--4-4--x-x-6-x-6---------
E--------------2-------x-x-4-x-4---------

Alguna duda o comentario escribe a mi mail.
		   
AcordesyTabs.com © 2008 Acordes y Tablaturas para guitarra. Tabs and Chords for guitar. Aviso Legal - Contacto
El uso de este sitio está sujeto a la aceptación de los términos y condiciones (15 usuarios online)