tablaturas, partituras y acordes para guitarra
Busca por banda/artista:
 
y/o título de la canción:
A B C D E F G H I J K L M N O P Q R S T U V W X Y Z 0 1 2 3 4 5 6 7 8 9 / Top 100 tabs
Categorías
Usuarios
usuario:
Darse de alta
password:
Artistas más visitados
Publicidad
TOP acordes y tablaturas de Mexicanto


Coincidir
de Mexicanto
Puntúa este acorde/tab:      
(0.5/5)
Reportar este acorde/tab
  Añadir a tus favoritos
  Imprimir
Esta es una excelente canción, la saqué lo mejor que 
pude y creo que con el arreglo puede sonar un poco mejor, 
si tienen comentarios o quieren mandarme sus correcciones
o Tabs de Mexicanto, escriban a oscarteaga@hotmail.com

Intro:
  G                             G  Bm       
----------------------0---2---3-3-2-2---2-----
--0---1---0---1---3-------------0-3-3-3---3---
----0---0---0---0---0---0---0---0-4-4---------
----------------------------------------------
----------------------------------2-2---------
--3-----------------------------3-------------

C	               G        D/F#       G  
0---------------0--3-3------------------------||
1-3-3---1-1-3------0-3-1-------3-1-0------||
0-0-0-0--------------0-0-----2-2-------2---·||
-----------------------0-------------------0-·||
3-----3---------------------------------------||
---------------------3-----------2---------3--|| (x2)

Arreglo: (Tocar entre cada estrofa)

  G                                            
--------------------0---2---3-3-------2-------0---------||
0---1---0---1---3---------------0---0---0---0---0---0-3-||
--0---0---0---0---0---0---0-------0-------0-------0---0-||
------------------------------------------------------0-||
--------------------------------------------------------||
3-----------------------------3-----------------------3-||

G                               D/F#	
Soy vecino de este mundo por un rato
	C               D             G	
Y hoy coincide que también tú estás aquí
G                               D/F#	
Coincidencias tan extrañas de la vida
            C             D      D/F#     D  
Tantos siglos, tantos mundos, tanto espacio...
   C     G
Y coincidir

Si navego con la mente los espacios,
O si quiero a mi ancestros retornar,
Agobiado me detengo y no imagino
Tantos siglos, tantos mundos, tanto espacio...
Y coincidir

Si en la noche me entretengo en las estrellas,
Y capturo la que empieza a florecer
La sostengo entre mis manos, mas me alarma
Tantos siglos, tantos mundos, tanto espacio...
Y coincidir

(Puede subir el tono a A)
Si la vida se sostiene por instantes
Y un instante es el momento de existir
Si tu vida es otro instante... no comprendo
Tantos siglos, tantos mundos, tanto espacio...
Y coincidir

Salida:

  G                             G(rasgueado)         
----------------------0---2---3-----0||
--0---1---0---1---3----------------0-||
----0---0---0---0---0---0---0-----0--||
-------------------------------------||
-------------------------------------||
--3------------------------------3---||
		   
AcordesyTabs.com © 2008 Acordes y Tablaturas para guitarra. Tabs and Chords for guitar. Aviso Legal - Contacto
El uso de este sitio está sujeto a la aceptación de los términos y condiciones (65 usuarios online)