tablaturas, partituras y acordes para guitarra
Busca por banda/artista:
 
y/o título de la canción:
A B C D E F G H I J K L M N O P Q R S T U V W X Y Z 0 1 2 3 4 5 6 7 8 9 / Top 100 tabs
Categorías
Usuarios
usuario:
Darse de alta
password:
Artistas más visitados
Publicidad
TOP acordes y tablaturas de Stereophonics


Estás en: Inicio > Letra S > Acordes y tablaturas de Stereophonics > Every day i think of money
Every day i think of money
de Stereophonics
Puntúa este acorde/tab:      
(0.1/5)
Reportar este acorde/tab
  Añadir a tus favoritos
  Imprimir

This is about right i think..
send me an E-mail at Msedgwick@ke7.org.uk if you think its any good.

riff 1
-------------------------------------------------
---1-------------0----1----0----1----------------
---2-------------2----2----2----2----------------
---2-------------2----2----2----2----------------
-------------------------------------------------
-------------------------------------------------
Am
I drive a truck,

riff 2
-------------------------------------------------
---1--------------0-----1----0-----1-------------
---2--------------2-----2----2-----2-------------
---3--------------3-----3----3-----3-------------
-------------------------------------------------
-------------------------------------------------

F?
It carries money,  

The same for all the verses...
apart from...
riff 3
---3---------------------------------------------
---2-------1-------------------------------------
---3-------2-------------------------------------
-----------3-------------------------------------
-------------------------------------------------
-------------------------------------------------
D          F
yesterday i brought my beach house.
D                F
Little place just off the coast of france.

---------------------2----------------------------
----1----------------2-----------------------------
-------------------------------------------------
----2--------------------------------------------
----3----------------2-----------------------------
---------------------3---------------------------
C                   G
Can't buy you love, can't give you up.. ( whatever )
  


Cheers. Give me some stick about this at Msedgwick@ke7.org.uk


		   
AcordesyTabs.com © 2008 Acordes y Tablaturas para guitarra. Tabs and Chords for guitar. Aviso Legal - Contacto
El uso de este sitio está sujeto a la aceptación de los términos y condiciones (29 usuarios online)