tablaturas, partituras y acordes para guitarra
Busca por banda/artista:
 
y/o título de la canción:
A B C D E F G H I J K L M N O P Q R S T U V W X Y Z 0 1 2 3 4 5 6 7 8 9 / Top 100 tabs
Categorías
Usuarios
usuario:
Darse de alta
password:
Artistas más visitados
Publicidad
TOP acordes y tablaturas de Pastilla


Comezón
de Pastilla
Puntúa este acorde/tab:      
(0.4/5)
Reportar este acorde/tab
  Añadir a tus favoritos
  Imprimir
YA SE QUE YA ESTA ESTE TAB, PERO NO SE DE QUE VERSIÓN ES,
POR QUE LE HACE FALTA BASTANTE.
ESTE ES EL TAB PARA LA CANCIÓN QUE ESTA EN EL NUEVO DISCO
ESPERO QUE LO ACEPTEN 


AFINACIÓN ESTANDAR (E,A,D,G)

EMPIEZA LA GUITARRA CON LA BATERIA
Y DESPUÉS ENTRAS CON UN SLIDE

INTRO:
G---------------------------------------------------------
D-9/2---2-2-5-2----------2-2—5-2----------2-2—5-2---------
A---------------2-2—5-2----------2-2—5-2----------2-2—5-2-
E---------------------------------------------------------

---------------5/7--5--------------
-----------------------5—3---------
-5-5-5-5-5-5-----------------5-5---	
-----------------------------------

-------------------------------------------------------------------
---2-2—5-2----------2-2—5-2----------2-2—5-2------------------------
-----------2-2—5-2----------2-2—5-2----------2-2—5-2--5-5-5-5-5-5-5-
--------------------------------------------------------------------

1er VERSO:
---------------------------------------------------------------------
---2-2—5-2----------2-2—5-2----------2-2—5-2-------------------------   (X2)
-----------2-2—5-2----------2-2—5-2----------2-2—5-2--5-5-5-5-5-5-5--
---------------------------------------------------------------------

1er CORO: 
------4--7---5---------8--11---9--------6-9--9-5-------6-9—9-10---
--5----------------9----------------77-------------77-------------
------------------------------------------------------------------  
------------------------------------------------------------------

------4--7---5---------8--11---9--------6-9--9-5-------6-9—9-7----
--5----------------9----------------77-------------77----------7/-
------------------------------------------------------------------  
------------------------------------------------------------------

2do VERSO: (X2)
-------------------------------------------------------------------
--2-2—5-2----------2-2—5-2----------2-2—5-2-------------------------   
----------2-2—5-2----------2-2—5-2----------2-2—5-2--5-5-5-5-5-5-5--
--------------------------------------------------------------------

2do CORO:  (X4)
-----------------------------------------------------6-9-9-10-(EN ESTA ULTIMA PARTE
-5-5-5-5-5-5-5-5-9-9-9-9-9-9-9-9-7-7-7-7-7-7-7-7-7-7-----------HAY ALGUNAS PEQUEÑAS   
---------------------------------------------------------------VARIACIONES)
---------------------------------------------------------------        

INTERLUDIO: (X2)  (donde la guitarra toca el solo)   
--------------------------------------------------------------------
--------------------------------------------------------------------  
-----------------2-2-2-2-2-2-2-2------------------------------------  
-3-3-3-3-3-3-3-3-----------------5-5-5-5-5-5-5-5-5-5-5-5-5-5-5-5-5-5


PUENTE:     
--------------------------------------------------------------------------
---2-2—5-2----------2-2—5-2-2/99-12-9-11-9/--2-2—5-2-------------------------
-----------2-2—5-2----------------------------------2-2—5-2--5-5-5-5-5-5-5--
--------------------------------------------------------------------------


3er CORO (X4) (igual que el 2do)


OUTRO: 
--------------------
--------------------
----------2-2-------
--3-3-----------5--
		   
AcordesyTabs.com © 2008 Acordes y Tablaturas para guitarra. Tabs and Chords for guitar. Aviso Legal - Contacto
El uso de este sitio está sujeto a la aceptación de los términos y condiciones (36 usuarios online)