tablaturas, partituras y acordes para guitarra
Busca por banda/artista:
 
y/o título de la canción:
A B C D E F G H I J K L M N O P Q R S T U V W X Y Z 0 1 2 3 4 5 6 7 8 9 / Top 100 tabs
Categorías
Usuarios
usuario:
Darse de alta
password:
Artistas más visitados
Publicidad
TOP acordes y tablaturas de BBS Paranóicos


Estás en: Inicio > Letra B > Acordes y tablaturas de BBS Paranóicos > Comisión Civil
Comisión Civil
de BBS Paranóicos
Puntúa este acorde/tab:      
(0.6/5)
Reportar este acorde/tab
  Añadir a tus favoritos
  Imprimir
COMISION CIVIL-BBS PARANOICOS

INTRO
G-------------
D-------------
A-3/5-5-5-5-5-(X4)
E-------------
PRE-VERSO
G---------------------------------------------
D---------------------------------------------
A-3/5-5-5-5-5-3/5-5-5-5-5-3-3-3-3-3-----------(X2)
E-----------------------------------5-5-5-5-5-
VERSO
G-------------------------------
D-------------------------------
A-5-5-5-5-5-3-3-3-3-3-----------(X2)
E---------------------5-5-5-5-5-
CORO
G-----------------------------------------
D-----------------------------------------
A-------------------------------3-3-3-3-3-
E-3-3-3-3-3-5-5-5-5-5-1-1-1-1-1-----------
PRE-VERSO
G--------------
D--------------
A-3/5-5-5-5-5--(X4)
E--------------
VERSO
G-------------------------------
D-------------------------------
A-5-5-5-5-5-3-3-3-3-3-----------(X2)
E---------------------5-5-5-5-5-
CORO
G-----------------------------------------
D-----------------------------------------
A-------------------------------3-3-3-3-3-
E-3-3-3-3-3-5-5-5-5-5-1-1-1-1-1-----------
PRE-CORO
G--------------
D--------------
A-3/5-5-5-5-5--(X4)
E--------------
CORO
G-----------------------------------------
D-----------------------------------------
A-------------------------------3-3-3-3-3-
E-3-3-3-3-3-5-5-5-5-5-1-1-1-1-1-----------
PRE-OUTRO
G--------------
D--------------
A-3/5-5-5-5-5--(X3)
E--------------
OUTRO
G---------------
D---------------~= SE DEJA SONANDO
A-3/5-5-5-5-5~--
E---------------

ESO ES TODO GRACIAS A TO2 MIS ADMIRADORES YA SABEN KUALKIER WEA AL MAIL
KRISTIAN_PUNKORE69@HOTMAIL.COM LLA CHAOOOOOOOOOO!!
		   
AcordesyTabs.com © 2008 Acordes y Tablaturas para guitarra. Tabs and Chords for guitar. Aviso Legal - Contacto
El uso de este sitio está sujeto a la aceptación de los términos y condiciones (30 usuarios online)