tablaturas, partituras y acordes para guitarra
Busca por banda/artista:
 
y/o título de la canción:
A B C D E F G H I J K L M N O P Q R S T U V W X Y Z 0 1 2 3 4 5 6 7 8 9 / Top 100 tabs
Categorías
Usuarios
usuario:
Darse de alta
password:
Artistas más visitados
Publicidad
TOP acordes y tablaturas de Cranberries


You And Me
de Cranberries
Puntúa este acorde/tab:      
(0.7/5)
Reportar este acorde/tab
  Añadir a tus favoritos
  Imprimir
The Cranberries - You and Me
Album - Bury The hatchet

-Finger style - Arpegiado-
 
 Left hand      Mano izquierda (digitacion)                        
                                                 
  1-Index       1-Indice                      
  2-Middle      2-Medio                       
  3-Ring        3-Anular                          
  4-Little      4-Meñique                            
                                                      
Intro                                            
        
                  riff-1                                       
Let ring
e|---------1-----1---|-------------------|     
B|---3-------3-----3-|---4-----3-----3---|  Repeat this all the song except chor
G|-----3-------3-----|-----3-----3-----3-|      
D|-1-------0-----0---|---------0---0-----|  Repite esto toda la cancion exeptuan
A|-------3-----------|-3-----3-----------|      
E|-------------------|-------------------|      
   1 4 3 2 1 4 3 1 4   2 4 3 2 4 3   4 3  <==digitacion mano izquierda.

e|---------1-----1---|---------------------||      |---------------------|
B|---3-------3-----3-|---4-----3-----3h4p3-||      |---4-----3-----3/43-|
G|-----3-------3-----|-----3-----3---------||  or  |-----3-----3---------|
D|-1-------0-----0---|---------0---0-------||      |---------0---0-------|
A|-------3-----------|-3-----3-------------||      |-3-----3-------------|
E|-------------------|---------------------||      |---------------------|
   1 4 3 2 1 4 3 1 4   1 4 2 1 3 2   3 4 3    ==>    2 4 3 2 4 3   4-4-4


This is another way to play the intro (riff-1)
Esta es otra manera de tocar el intro (riff-1)

                             III........  <=Cegilla en el 3er traste
e|-------------------|-------------------|
B|---------6-----6---|---4-----3-----3---|  Repeat this all the song except chor
G|---7-------7-----7-|-----5-----3-----3-|
D|-----8-------8-----|-------------5-----|  Repite esto toda la cancion exeptuan
A|-6-----6-5-----5---|-3-----3-5-----5---|
E|-------------------|-------------------|
   1 3 4 1 2 3 4 2 3   1 2 3 1 1 1 4 1 1  <==digitacion mano izquierda.
           1     1             3     3

                             III..........
e|-------------------|---------------------||
B|---------6-----6---|---4-----3-----3h5p3-||
G|---7-------7-----7-|-----5-----3---------||
D|-----8-------8-----|-------------5-------||
A|-6-----6-5-----5---|-3-----3-5-----5-----||
E|-------------------|---------------------||
   1 3 4 1 2 3 4 2 3   1 2 3 1 1 1 4 1 2 1
           1     1             3     3


-Lyric - Letra- 

riff-1
I'm not going out tonight 'cos I don't want to go
I am staying at home tonight 'cos I don't want to know
You revealed a world to me and I would never be
Dwelling in such happiness, your gift on purity
Eh-ee-oh, eh-ee-oh, eh-ee,oh, eh-ee-oh X 2

-chorus - coro-

G#-A#  Dm (A#) Gm          G#    A#   
Aahh , you and me it will always be
Dm (A#) Gm    G#   A#
You and me Forever be,
  Dm(A#)Gm        G#     A# Dm (A#) Gm
Eternally it will always be You and me
riff-1
Taylor, Taylor, Taylor, Taylor

riff-1
I don't pay attention to the ones who never cared
Find your onw direction 'cos there's sweetness in the air
You will be the world to me and I will always be
Dwelling in this happiness, your gift of purity
Eh-ee-oh, eh-ee-oh, eh-ee,oh, eh-ee-oh X 2

-chorus - coro-

G#-A#  Dm (A#) Gm          G#    A#   
Aahh, you and me it will always be
Dm (A#) Gm    G#   A#
You and me Forever be,
  Dm(A#)Gm        G#     A#
Eternally it Will always be
Dm (A#) Gm
You and me
G#     A# Dm (A#) Gm
Always be You and me
   G#   A#    Dm(A#)Gm
Forever be, Eternally
        G#     A# Dm (A#) Gm
It will always be You and me
   G#   A#    Dm(A#)Gm
Forever be, Eternally
Riff-1
Taylor, Taylor X 4
fade out

Chords used - Acordes usados

   G#  A# Dm  Gm   

e|-4- -6- -5- -3-
B|-4- -6- -6- -3-
G|-5- -7- -7- -3-
D|-6- -8- -7- -5-
A|-6- -8- -5- -5-
E|-4- -6- -x- -3-

Legend - Notacion

h  Hamer
p  Pull off
/  Slide
() Gosht note-chord 
		   
AcordesyTabs.com © 2008 Acordes y Tablaturas para guitarra. Tabs and Chords for guitar. Aviso Legal - Contacto
El uso de este sitio está sujeto a la aceptación de los términos y condiciones (14 usuarios online)