tablaturas, partituras y acordes para guitarra
Busca por banda/artista:
 
y/o título de la canción:
A B C D E F G H I J K L M N O P Q R S T U V W X Y Z 0 1 2 3 4 5 6 7 8 9 / Top 100 tabs
Categorías
Usuarios
usuario:
Darse de alta
password:
Artistas más visitados
Publicidad
TOP acordes y tablaturas de Alejandro Fernandez


Estás en: Inicio > Letra A > Acordes y tablaturas de Alejandro Fernandez > Como el sol y el trigo
Como el sol y el trigo
de Alejandro Fernandez
Puntúa este acorde/tab:      
(0.6/5)
Reportar este acorde/tab
  Añadir a tus favoritos
  Imprimir
Intro

E--12-12-12-12-12--------------12-------+--------------9----
B--13-13-13-13-13--13------13--13---15--+-12-11-12-14-------
G------------------14--14--14-------16--+-------------------
D----------------------14---------------+-------------------
A---------------------------------------+-------------------
E---------------------------------------+-------------------


E---8--8--8--8--8--------------10-------+--------------7----
B--10-10-10-10-10--10------10--10---12--+-9--8--9--11-------
G------------------10--10--10-------13--+-------------------
D----------------------10---------------+-------------------
A---------------------------------------+-------------------
E---------------------------------------+-------------------

luego  LA - SOL - FA - MI RASGUEADO

E------------------------------------
B------------------------------------
G--2--0------------------------------
D--------3--2--0---2--0--------------
A------------------------3--2---0----
E------------------------------------

(1)	    LAm                 SOL
	Me muero porque te has ido
	    FA                 DO
	Me muero porque te extraño
	REm         MI7
	y te llora mi corazón
	REm          MI7
	y te estoy amando.
	LAm                 SOL
	Quisiera mirar tus ojos
	FA                   DO
	quisiera sentir tus labios
	REm             MI7
	pero estas muy lejos y yo
	REm        MI7
	te vivo soñando


(2)		LAm      SOL   FA          MI7
		Ay corazón, por qué no estás
		LAm                SOL
		quiero sentir de nuevo
		      FA            MI7
		tu calor entre mis brazos
		LAm      SOL   FA        MI7
		Ay corazón, por qué te vas
		LAm                  SOL
		y por tu regreso mi amor
		FA            MI7
		yo sigo esperando.


(1)	LAm                 SOL
	Cuando eramos solo niños
	      FA               DO
	ya estaba el amor rondando
	REm                MI7  
	como el sol y el trigo tu y yo
	REm           MI7
	nos fuimos amando.
	LAm                SOL
	Yo fui tu primer amigo
	     FA              DO
	también tu primer pecado
	REm            MI7
	y ahora llevo todo mi amor
	REm         MI7
	a tu amor atado.


(3)		      LA7
		De ausencia se me ha teñido
		                   REm
		el corazón sin tu abrazo
		      FA
		pero nunca yo te olvido
		          SI7             MI7
		porque tu alma está a mi lado.
		LAm                  SOL
		Yo tengo el amor herido
		      FA               DO
		y en mis ojos tengo llanto
		REm             MI7
		y al tiempo le pido que no
		REm             MI7
		me haga sufrir tanto.

(2) DOS VECES

=====================================================
TRANSCRITO POR:
CARLOS GOMEZ   CBBA - BOLIVIA
CARL_666@LATINMAIL.COM

SI HAY ALGUN ERROR POR FAVOR DIMELO 
SI QUIERES SABER COMO VA EL PUNTEO DEL SOLO CONTACTAME
SI QUIERES ALGUN TEMA EN ESPECIAL SOLO PIDEMELO 

VIVA LA MUSICA !!!!
practica !!
=====================================================
		   
AcordesyTabs.com © 2008 Acordes y Tablaturas para guitarra. Tabs and Chords for guitar. Aviso Legal - Contacto
El uso de este sitio está sujeto a la aceptación de los términos y condiciones (30 usuarios online)