tablaturas, partituras y acordes para guitarra
Busca por banda/artista:
 
y/o título de la canción:
A B C D E F G H I J K L M N O P Q R S T U V W X Y Z 0 1 2 3 4 5 6 7 8 9 / Top 100 tabs
Categorías
Usuarios
usuario:
Darse de alta
password:
Artistas más visitados
Publicidad
TOP acordes y tablaturas de Deftones


Rx queen
de Deftones
Puntúa este acorde/tab:      
(0.4/5)
Reportar este acorde/tab
  Añadir a tus favoritos
  Imprimir
Riff 1  

G |-------2------------| 
D |---0-0---1(let ring)| 
A |-3------------------| 
A#|--------------------| 

Riff 2 

G |--------------------|The bass rhythm  for the chorus is hard to  
D |000-00-00-333-33-33-|hear, but if you just pluck with the bass drum,  
A |--------------------|it sounds ok. 
A#|--------------------| 

Riff 3 

G |----2-------------------2------------------2------------- 
D |0-0---1(let ring)---0-0---1(let ring)--0-0---1(let ring)- 
A |------------------3------------------3------------------- 
A#|--------------------------------------------------------- 

G |------2-------------| 
D |--0-0---1(let ring)-| 
A |3-------------------| 
A#|--------------------| 

Riff 4 

G |-----------|Again, I don't know the exact rhythm, but this should  
D |111-11-11--|give you a pretty good idea. Just listen to the CD and  
A |-----------|you should be ok. 
A#|-----------| 

Riff 5 

G |---------|This is repeated about 14 times. I don't know how many  
D |---------|times it is actually played because the song fades away... 
A |---------| 
A#|000-00-00|
		   
AcordesyTabs.com © 2008 Acordes y Tablaturas para guitarra. Tabs and Chords for guitar. Aviso Legal - Contacto
El uso de este sitio está sujeto a la aceptación de los términos y condiciones (15 usuarios online)