tablaturas, partituras y acordes para guitarra
Busca por banda/artista:
 
y/o título de la canción:
A B C D E F G H I J K L M N O P Q R S T U V W X Y Z 0 1 2 3 4 5 6 7 8 9 / Top 100 tabs
Categorías
Usuarios
usuario:
Darse de alta
password:
Artistas más visitados
Publicidad
TOP acordes y tablaturas de Enanitos Verdes


Estás en: Inicio > Letra E > Acordes y tablaturas de Enanitos Verdes > Como seduce el mar
Como seduce el mar
de Enanitos Verdes
Puntúa este acorde/tab:      
(0.2/5)
Reportar este acorde/tab
  Añadir a tus favoritos
  Imprimir
Esta es mi primer colaboracion en el atame, y es de una excelente cancion de mi grupo favorito
aunque realmente esta cancion la escribio Marciano para su segundo disco como solista
llamado Beat Club alla por 1992.
la cancion esta armonizada en sus tonos originales 100% correcta,
Quiero dedicarle esta cancion a mi mejor amiga, ya que ella fue quien
estuvo ahi cuando mas la necesite y me dio animos para aprender guitarra
muchas gracias Normita Vega.

intro:
 A#   F  Gm  F   D# Cm   D# F7
e----------------------------------------------------------------
B-----6~-----6~--4~--3~--4~--6~-----------------------------------
G-3~------0------------------------------------------------------
D----------------------------------------------------------------
A----------------------------------------------------------------
E----------------------------------------------------------------

  A#              F       Gm      F   D#  Cm    D#      F7
e-------------------------------------------------------------------
B-6-8-6-8-6~-6-8-6-4-3-4-3~-1-1----1-3-4~---------------8-11-13-11-
G--------------------------------3---------0------7-8-7~---------------
D--------------------------------------------8~-8--------------------
A-------------------------------------------------------------------
E-------------------------------------------------------------------

A#     F          Gm
yo conoci esta ciudad cuando
  F       D#  Cm    D#           F7 3---3-3-3-2-3-3
la noche caiiiia con la luna y sofa
A#     F          Gm
demostrar cada lugar con un
  F        D#  Cm    D#           F7
encanto de niiiña de cemento y estras

Gm                            D#   3---3h5-7-5-3-0
y me envolvio como envuelve el mar
  Cm			   D	    3---3-5-7-3-5-7-3
y fui tan vulnerable en sus brazos de cristal
  Gm 			 D#    3---3h5-7-5-3-0
y me sedujo como seduce el mar

		  3--1-3-5
  Cm		     D
y fui tan vulnerable...tan vulnerable

	3--3-5-7~-7---5-7-8~
    D#          Cm     F7
en sus braaazos de cristal

A# F Gm F D# Cm D# F7
repetir punteos del intro


A#  F           Gm     F
  y asi yo vi pasar el arte
    D#  Cm        D#          F7
milenaaario de una estrella de mar
A#  F	       Gm       F
  y escuche la voz de un hombre
       D#  Cm        D#		   F7
de mil aaaaños con un rostro angelical

Gm                            D#   3--3-5-1-3-5-3-5-7
que me envolvio como envuelve el mar
  Cm			   D		 3--3-5-3-5-7-8~
pero fui invulnerable a su canto de ultramar
  Gm 			 D# 3--5-7-8-7-5-3~
y no intente siquiera escapar
  Cm			 D
como escapar de esta poesia sin final
	      3--3-5~
    D#    Cm   F
sin final uoooou

  A#              F       Gm      F   D#  Cm   D#      F7
e----------------------------------------------------------------
B-6t--6-6-6-4-3-4-3~-1-1----1-3-4~--------------8-11-13-11-----
G-------------------------3---------0-----7-8-7~------------------
D-------------------------------------8-8--------------------------
A----------------------------------------------------------------
E----------------------------------------------------------------
  nota: la t despues del 6 significa que lleva tremol

repetir punteos del intro

A#     F          Gm 2-10-10-10h11~ X 2
yo conoci esta ciudad cuando

2-6h8--6h8-6
  F       D#  Cm    D#           F7
la noche caiiiia con sus años ???/??

  A#  F       Gm      F   D#  Cm   D#      F7
e-------------3-1-3-1~--------------------------------------------
B-------------3--------------8~-------6h8-6~-3-6-6~-43-1~--------
G-------------3--------3-5-7----5-7-------------------------------
D-------------5---------------------8------------------------------
A-------------5---------------------------------------------------
E-------------3---------------------------------------------------


3--3h5-7-3-5-7 X2

A#    F          Gm
  y ahora estoy aqui
						3--3h5-7-3-5-7 X2
   F           D#   Cm         D#        F7   A#    F  Gm  F  D# Cm D# F7
sentado en las piieedras que me vieron nacer......naaaceeeer

A# F Gm F D# Cm D# F7


nada mas falta la parte final donde la guitarra electrica entra con distorcion
Las partes donde lleva D# se deben tocar en el 3 traste para que se escuche igual
abajo viene la posicion.

Acordes:

     A#   F    D#   Cm    F7   D    Gm     
E||--1----1----3----3-----1----2----3----||
B||--3----1----4----4-----1----3----3----||
G||--3----2----3----5-----2----2----3----||
D||--3----3----5----5-----1----0----5----||
A||--1----3----6----3-----3---------5----||
E||--1----1----3----3-----1---------3----||
		   
AcordesyTabs.com © 2008 Acordes y Tablaturas para guitarra. Tabs and Chords for guitar. Aviso Legal - Contacto
El uso de este sitio está sujeto a la aceptación de los términos y condiciones (93 usuarios online)