tablaturas, partituras y acordes para guitarra
Busca por banda/artista:
 
y/o título de la canción:
A B C D E F G H I J K L M N O P Q R S T U V W X Y Z 0 1 2 3 4 5 6 7 8 9 / Top 100 tabs
Categorías
Usuarios
usuario:
Darse de alta
password:
Artistas más visitados
Publicidad
TOP acordes y tablaturas de Jaguares


Como tu
de Jaguares
Puntúa este acorde/tab:      
(0.4/5)
Reportar este acorde/tab
  Añadir a tus favoritos
  Imprimir
Esta rola la saque para una persona muy especial 
para mi, para ti Andrea, por los momentos tan 
padres q pasamos y q seguiremos pasando JUNTOS, 
GRACIAS

Esta rola esta super buena asi q echenle ganas y 
de lo suyo para q suene padre, por cierto, la 
letra de la rola, está mas o menos puesta donde 
se toca, pero en algunos caso no es exacto, por
el espacio, asi q echenle ojo en esas partes


INTRO

G|-----------------------------------------------|
D|-----------------------------------------------|
A|-2-----2-2--2-----2-2--2-----2-2--2-----2------|
E|---2-5--------2-5--------2-5--------2-5--------|



hay un alma q está herida,     q se derrama en 
G|-----------------------------------------------|
D|-----------------------------------------------|
A|-2-------2--------------------2-------2--------|
E|---2-3-2---2-3-2--2--2~--2-2----2-3-2---2-3-2--|

  cada vida, q se contempla en los espejos de la carne
G|-----------------------------------------------|
D|-----------------------------------------------|
A|------------2-------2--------------------2-----|
E|-2--2~--2-2---2-3-2---2-3-2---2--2~--2-2---2-3-|

y no se dobla ni se rinde
G|-----------------------------------------------|
D|-----------------------------------------------|
A|---2-------------------------------------------|
E|-2---2-3-2--2-2~--2----------------------------|


CORO

 Asi como tu u u u  amor q das la vida, asi como tu
G|-----------------------------------------------|
D|-----------------------------------------------|
A|---5--2------5---2-----------------5--2-----5-2|
E|-3------5-3--------5-5-5--2-2-2--3------5-3----|
  amor, q das la vida, asi como tu u u , asi como 
G|-----------------------------------------------|
D|-----------------------------------------------|
A|-----------------5-2------2-----2-------5-2----|
E|-5-5-5--2-2-2--3-----5-5----2-5---2-5-3-----5-5|

 tu u u u 
G|-----------------------------------------------|
D|-----------------------------------------------|
A|-2-----2---------------------------------------|
E|---2-5-----------------------------------------|





   hay un alma q fue preñada   sufrió el engaño de
G|-----------------------------------------------|
D|-----------------------------------------------|
A|-2-------2--------------------2-------2--------|
E|---2-3-2---2-3-2--2--2~--2-2----2-3-2---2-3-2--|

  tus sueños, anda buscando donde esconder su mortal 
G|-----------------------------------------------|
D|-----------------------------------------------|
A|------------2-------2--------------------2-----|
E|-2--2~--2-2---2-3-2---2-3-2---2--2~--2-2---2-3-|

herida, y está esperando verte hincado y desangrando
G|-----------------------------------------------|
D|-----------------------------------------------|
A|---2-------------------------------------------|
E|-2---2-3-2--2-2~--2----------------------------|



CORO
 asi como tu u u   amor q quitas la vida  asi como 
G|-----------------------------------------------|
D|-----------------------------------------------|
A|---5--2------5---2-----------------5--2-----5-2|
E|-3------5-3--------5-5-5--2-2-2--3------5-3----|

tu u u amor q quitas la vida, asi como tu u u 
G|-----------------------------------------------|
D|-----------------------------------------------|
A|-----------------5-2------2-----2-------5-2----|
E|-5-5-5--2-2-2--3-----5-5----2-5---2-5-3-----5-5|

asi como tuuuuu    y es tan fácil q te hagan daño
             ni en el último suspiro te dejas querer
G|-----------------------------------------------|
D|-----------------------------------0~-0~-------|
A|-2-----2----------------2-2~--2-2~-------3~-3~/|
E|---2-5----2-5-2-2~--2-2~-----------------------|


amor roto ho ho o o    (S  O  L  O  )
G|-----------------------------------------------|
D|-----------------------------------------------|
A|-----------1-2-------2------------------2------|
E|-------3-5-----2-3-2---2-3-2-2--2~--2-2---2-3-2|


           (  S   O  L    O   )
G|-----------------------------------------------|
D|-----------------------------------------------|
A|-2------------------2-------2------------------|
E|---2-3-2-2--2~--2-2---2-3-2---2-3-2-2--2~--2-2-|

           (  S  O   L     O   )
G|-----------------------------------------------|
D|-----------------------------------------------|
A|-2-------2-------------------------------------|
E|---2-3-2---2-3-2-2--2~--2-2--------------------|


asi como tu u u   amor q das la vida, asi como tu
G|-----------------------------------------------|
D|-----------------------------------------------|
A|---5--2------5---2-----------------5--2-----5-2|
E|-3------5-3--------5-5-5--2-2-2--3------5-3----|

uu amorq quitas la vida,asi como tuu amor, q das la vida
G|-----------------------------------------------|
D|-----------------------------------------------|
A|-----------------5-2------5--2---------------5-|
E|-5-5-5--2-2-2--3-----5-3-------5-5-5-2-2-2-3---|

asi como tu u u amor q quitas la vida, asi como tu u 
G|-----------------------------------------------|
D|-----------------------------------------------|
A|-2-----5--2---------------5-2-----2-----2------|
E|---5-3------5-5-5-2-2-2-3-----5-5---2-5---2-5--| 

u u u asi como tu u u u   asi como tu u u u 
G|-----------------------------------------------|
D|-----------------------------------------------|
A|---5-2-----2-----2-------5-2-----2-----2-------|
E|-3-----5-5---2-5---2-5-3-----5-5---2-5---2-5-3-|

asi como tu u u u  u u uuuuu
G|-----------------------------------------------|
D|-----------------------------------------------|
A|-5-2------------2/9--7--5---2^3^2~-------------|
E|-----5~-----2~---------------------------------|


Ya saben, comentarios, anectodas y todo lo q quieran 
enviar al mail de siempre jcd_007@hotmail.com
		   
AcordesyTabs.com © 2008 Acordes y Tablaturas para guitarra. Tabs and Chords for guitar. Aviso Legal - Contacto
El uso de este sitio está sujeto a la aceptación de los términos y condiciones (31 usuarios online)