tablaturas, partituras y acordes para guitarra
Busca por banda/artista:
 
y/o título de la canción:
A B C D E F G H I J K L M N O P Q R S T U V W X Y Z 0 1 2 3 4 5 6 7 8 9 / Top 100 tabs
Categorías
Usuarios
usuario:
Darse de alta
password:
Artistas más visitados
Publicidad
TOP acordes y tablaturas de Gin blossoms


Estás en: Inicio > Letra G > Acordes y tablaturas de Gin blossoms > Until i fall away
Until i fall away
de Gin blossoms
Puntúa este acorde/tab:      
(0.5/5)
Reportar este acorde/tab
  Añadir a tus favoritos
  Imprimir

From: JeremyH109@aol.com
Subject: Corrected "Until I Fall Away"tab

This is a corrected version - I had to reformat the tab...
Here's my transcription of "Until I Fall Away" by the Gin Blossoms- I only
tabbed the intro and the solo.  The picking pattern is like the intro. When
 you do it, you can add parts of the chords that I left out.  Also, I think
that sometimes they play the chords in a different position, leaving the B
and high E strings ringing.  These chords are:
E Chord       A Chord        B Chord
e 0                0                    0
B 0               0                     0
G 9                6	              8
D 9	       7                    9
A 7                7                    9
E 0                5                    7

Intro:                         A                              E			   B				
0-0-----0--0-----0--0--------0--------0--------0-------0--------0------0--
3/5-----5--4-----2--0-----------0--------0----------------0--------0-------
--------------------------2--------2--------2-----------------1--------1----
--------------------------2---------------------------------------------------

--------------------------0---------------------------------------------------
2
------------------------------------------------------0-----------------------


                          C#m                       A  			
                           		
-0---0--------2--------0-----0--------4--------------0-------0-----0
--------4--------4--------------5--------5--------------0-------0----
1---------4--------4--------------6--------6--------------2-------2--
------------------------------------------------6------------------------
---2----------------------4-----------------------0---------------------
--------------------------------------------------------------------------

 E                 B
--0---0-----0-----0--------2--------0-----0--------2------------------
----0---0-------------4--------4--------------4--------4--------------
------1---1--------------4--------4--------------4--------4------------
--------------------------------------------------------------------------
----------------2-----------------------2--------------------------------
0-------------------------------------------------------------------------

Solo:
 C#m           A      E                     B                C#m
--------------------------------------------------------------------------
----------------------9h10p9-------------------------------------------
------------------------------11--9-----9h11---------------------------
6h7p6--------/9--------------------------------------6h7p6------------
--------9--7------------------------------------------------------9--7---
--------------------------------------------------------------------------


A         E                                B
--------------------------------------------------------------------------
--------------------------------------------------------------------------
--------------------------------------------------------------------------
/9----(7)--6--7--7/9--7--7--7--6--4--4/6--4--2---------------------
-------------------------------------------------------2/4----------------
--------------------------------------------------------------------------

C#m       A       E		  B
I want to tell if I am or I am not myself

     C#m	     A             E                          B
It's hard to know how far or if at all could go

             C#m     A         E                                 B
Waiting far too long for something I forgot was wrong

            A                              B
I don't know all the answers I think that I'll find

      E                        A                                          B
Or have it within the time   but it's all that I'll have in mind

Chorus:
   C#m        A              E                            B
Until I fall away  That won't keep us waiting long

   C#m        A                E                          B
Until I fall away  I don't know what to do anymore

   C#m        A
Until I fall away... etc.

Verse 2
My fear pretend that I'll never be in love again
It's real to me but not like these fools and not like this scene
I won't find or have it within the time
If it's all rusted and fade in the spot where we fell
Where I thought I'd left behind
It's loose now but we could try..
Chorus
Bridge
F#m  A
	When there's no good answers
F#m   B
	To those new questions
F#m   A
	Another personal disaster
B  B/A              B/G#m	    B/F#m
	There's nowhere to go but down...
Solo
Repeat chorus

I realize I've left out some of the fills and stuff, but this should be
enough for anyone who wants to
play it
Good luck and good playing!

Jeremy





		   
AcordesyTabs.com © 2008 Acordes y Tablaturas para guitarra. Tabs and Chords for guitar. Aviso Legal - Contacto
El uso de este sitio está sujeto a la aceptación de los términos y condiciones (22 usuarios online)