tablaturas, partituras y acordes para guitarra
Busca por banda/artista:
 
y/o título de la canción:
A B C D E F G H I J K L M N O P Q R S T U V W X Y Z 0 1 2 3 4 5 6 7 8 9 / Top 100 tabs
Categorías
Usuarios
usuario:
Darse de alta
password:
Artistas más visitados
Publicidad
TOP acordes y tablaturas de Creed


Estás en: Inicio > Letra C > Acordes y tablaturas de Creed > Higher Intro
Higher Intro
de Creed
Puntúa este acorde/tab:      
(0.4/5)
Reportar este acorde/tab
  Añadir a tus favoritos
  Imprimir
Artist: Creed
Song: Higher

Tab written by Andrew Afan [atamize@hotmail.com]

Note: This is my first ever tab written. I know there are probably names for the

Standard Tuning - E A D G B E

Intro: (w/o distortion)

E|----------0----2---0---2---|-------2-------2----|
B|----3-3-3-3----3---3---3---|---2---2---2---2--2-|
G|----2-2-2-2----2---2---2---|---2---2---2---2--2-|
D|----0-0-0------------------|--------------------|
A|---------------------------|--------------------|
E|---------------------------|--------------------|


E|-------0---0--------3-----2---0-2-0-0-|
B|--3--3---3---3---3--3--3--3---3-3-3-3-|
G|--3--3---3---3---3--3--3--2---2-2-2-2-|
D|--3--3---3---3---3--------------------|
A|--------------------------------------|
E|--------------------------------------|

Repeat w/distortion
		   
AcordesyTabs.com © 2008 Acordes y Tablaturas para guitarra. Tabs and Chords for guitar. Aviso Legal - Contacto
El uso de este sitio está sujeto a la aceptación de los términos y condiciones (42 usuarios online)