tablaturas, partituras y acordes para guitarra
Busca por banda/artista:
 
y/o título de la canción:
A B C D E F G H I J K L M N O P Q R S T U V W X Y Z 0 1 2 3 4 5 6 7 8 9 / Top 100 tabs
Categorías
Usuarios
usuario:
Darse de alta
password:
Artistas más visitados
Publicidad
TOP acordes y tablaturas de Carnaval de Cadiz


Estás en: Inicio > Letra C > Acordes y tablaturas de Carnaval de Cadiz > Comparsa Guadalupe
Comparsa Guadalupe
de Carnaval de Cadiz
Puntúa este acorde/tab:      
(0.1/5)
Reportar este acorde/tab
  Añadir a tus favoritos
  Imprimir
                    Popurrit de la Comparsa Guadalupe                       


                                                                      by ELPACOW
Guitarra Acomp. (Capo 4)
Tocada con Guitarra española con cejilla en el 4º traste



     Aadd9             Dm6add9             Aadd9             Dm6add9         
E||-----------0--------------0---------||-----------0--------------0--------|
B||--------------2-----------3---------||--------------2-----------3--------|
G||--------4--------4--------4--------*||--------4--------4--------4--------|
D||-----2-----------------3-----------*||-----2-----------------3-----------|
A||--0-----------------0---------------||--0-----------------0--------------|
E||------------------------------------||-----------------------------------|


  Aadd9             Dm6add9              F                 
-----------0--------------------------|--------------1----|
--------------2-----------------------|-------------------|
--------4--------4--------------------|-----------2-------|
-----2--------------0-----------------|--------3----------|
--0--------------------4--2--0--------|-----3-------------|
--------------------------------4--2--|--1----------------|


  Aadd9             Dm6add9           Dm           F             
-----------0--------------0--------|--1------------1------------|
--------------2-----------3--------|--3------------1------------|
--------4--------4--------4--------|--2------------2------------|
-----2-----------------3-----------|--0------------3------------|
--0-----------------0--------------|--0------------3------------|
-----------------------------------|---------------1------------|


  Aadd9          Dm6add9            Aadd9          Dm6add9        2x
-------0----0---------0--------||--------0----0---------0---------||
-------2----2---------3--------||--------2----2---------3---------||
-------4----4---------4--------||*-------4----4---------4--------*||
-------2----2---------3--------||*-------2----2---------3--------*||
--0--------------0-------------||---0--------------0--------------||
-------------------------------||---------------------------------||


  Aadd9          Dm6add9          Aadd9          Dm6add9        
-------0----0---------0--------|-------0----0---------0--------|
-------2----2---------3--------|-------2----2---------3--------|
-------4----4---------4--------|-------4----4---------4--------|
-------2----2---------3--------|-------2----2---------3--------|
--0--------------0-------------|--0--------------0-------------|
-------------------------------|-------------------------------|


  Aadd9          Dm6add9          Aadd9          Dm6add9        
-------0----0---------0--------|-------0----0---------0--------|
-------2----2---------3--------|-------2----2---------3--------|
-------4----4---------4--------|-------4----4---------4--------|
-------2----2---------3--------|-------2----2---------3--------|
--0--------------0-------------|--0--------------0-------------|
-------------------------------|-------------------------------|


  Aadd9          Dm6add9         
-------0----0---------0--------||
-------2----2---------3--------||
-------4----4---------4--------||
-------2----2---------3--------||
--0--------------0-------------||
-------------------------------||

                    Popirrit de la Comparsa Guadalupe                       


                                                                      by ELPACOW
Punteao (Capo 4)
Tocada con Guitarra española con cejilla en el 4º traste



                                                                  
E||-------||--0----9-9-9-9-9-9-9-9-9-9-9-9-9----0--7--9--10--12--|
B||-------||-----------------------------------------------------|
G||------*||-----------------------------------------------------|
D||------*||-----------------------------------------------------|
A||-------||-----------------------------------------------------|
E||-------||-----------------------------------------------------|


                                                  Aadd9            
--10h12h10---9-------------10--9--7------------|------------------|
------------------------10-----------10--9--7--|--6------0--2--3--|
---------------------10------------------------|------------------|
-----------------------------------------------|------------------|
-----------------------------------------------|------------------|
-----------------------------------------------|------------------|


                                                                      
------------------------------|--5--7--5--7--5-----------------------|
--3h-2--0--2------------------|--6--------------8--6--8--6--8--6--5--|
------------------------------|--7-----------------------------------|
------------------------------|--------------------------------------|
------------------------------|--------------------------------------|
------------------------------|--------------------------------------|


                                        Aadd9             Dm6add9         2x
--------------------------9--------||------------0--------------0---------||
--3h5h3----2----3----5-------------||---------------2-----------3---------||
-----------------------------------||*--------4--------4--------4--------*||
-----------------------------------||*-----2-----------------3-----------*||
-----------------------------------||---0-----------------0---------------||
-----------------------------------||-------------------------------------||


  Aadd9             Dm6add9           Aadd9             Dm6add9         
-----------0--------------0--------|-----------0--------------0--------|
--------------2-----------3--------|--------------2-----------3--------|
--------4--------4--------4--------|--------4--------4--------4--------|
-----2-----------------3-----------|-----2-----------------3-----------|
--0-----------------0--------------|--0-----------------0--------------|
-----------------------------------|-----------------------------------|


  Aadd9             Dm6add9           Aadd9             Dm6add9         
-----------0--------------0--------|-----------0--------------0--------|
--------------2-----------3--------|--------------2-----------3--------|
--------4--------4--------4--------|--------4--------4--------4--------|
-----2-----------------3-----------|-----2-----------------3-----------|
--0-----------------0--------------|--0-----------------0--------------|
-----------------------------------|-----------------------------------|


  Aadd9             Dm6add9          
-----------0--------------0--------||
--------------2-----------3--------||
--------4--------4--------4--------||
-----2-----------------3-----------||
--0-----------------0--------------||
-----------------------------------||


comentarios a 'elpacow@terra.es'
Un servidor de la Isla
		   
AcordesyTabs.com © 2008 Acordes y Tablaturas para guitarra. Tabs and Chords for guitar. Aviso Legal - Contacto
El uso de este sitio está sujeto a la aceptación de los términos y condiciones (28 usuarios online)