tablaturas, partituras y acordes para guitarra
Busca por banda/artista:
 
y/o título de la canción:
A B C D E F G H I J K L M N O P Q R S T U V W X Y Z 0 1 2 3 4 5 6 7 8 9 / Top 100 tabs
Categorías
Usuarios
usuario:
Darse de alta
password:
Artistas más visitados
Publicidad
TOP acordes y tablaturas de Lennon john


Stand by me
de Lennon john
Puntúa este acorde/tab:      
(0.6/5)
Reportar este acorde/tab
  Añadir a tus favoritos
  Imprimir

Stand By Me 
(John Lennon)

Tabbed by: Darren Bencosky
Intro
(A)                                          (F#)
-----------------------------------1---1---1---1---1---1---1---1---------
-----------------------------------1---1---1---1---1---1---1---1---------
-6---6---6---6---6---6--6---6------0---0---0---0---0---0---0---0---------
-7---7---7---7---7---7--7---7------2---2---2---2---2---2---2---2---------
-7---7---7---7---7---7--7---7------3---3---3---3---3---3---3---3---------
-5---5---5---5---5---5--5---5------------------------------------------------


(D)                       (E)
------------------------------------------------------------------------------
-3---3---3---3----------------------------------------------------------------
-2---2---2---2------1---1---1---1-------2-----6---6--6---6-------2---4--2-----
-0---0---0---0------2---2---2---2---2---------7---7--7---7---3--------------0-
-0---0---0---0------2---2---2---2-------------7---7--7---7---------------------
----------------------------------------------5---5--5---5---------------------

Verse 1
(A)                                            (F#)
When the night has come,  and the world is dark.

(D)                               (E)        (A)
And the moon is the only light that we will see.

(A)                                 (F#)
And I won't be afraid, no... I won't be afraid,

(D)                               (E)    (A)
just as long as you stand, baby stand by me.

    (A)          (A)
Darling, Darling 

Outro
-------7^---------7----9^---------9---------------------------------------7-----7-^---
-10---------10---------------10-------9^--------9------------11-----------10---10-^---
------------------------------------------------7--------9------9--9------------------
--------------------------------------------------------------------------------------
--------------------------------------------------------------------------------------
--------------------------------------------------------------------------------------

		   
AcordesyTabs.com © 2008 Acordes y Tablaturas para guitarra. Tabs and Chords for guitar. Aviso Legal - Contacto
El uso de este sitio está sujeto a la aceptación de los términos y condiciones (18 usuarios online)