tablaturas, partituras y acordes para guitarra
Busca por banda/artista:
 
y/o título de la canción:
A B C D E F G H I J K L M N O P Q R S T U V W X Y Z 0 1 2 3 4 5 6 7 8 9 / Top 100 tabs
Categorías
Usuarios
usuario:
Darse de alta
password:
Artistas más visitados
Publicidad
TOP acordes y tablaturas de Creed


Estás en: Inicio > Letra C > Acordes y tablaturas de Creed > Inside Us All
Inside Us All
de Creed
Puntúa este acorde/tab:      
(0.8/5)
Reportar este acorde/tab
  Añadir a tus favoritos
  Imprimir
Song - Inside us all
Artist- CREED
Album- Human Clay 
Tabbed by-  Adam: The guy who tabs stuff. 

  The rhythm in the beginning is simple when heard but difficult to tab so don’t
Chord progression during verse (if you’re too lazy to read the taband get the pi

 Intro./Verse 
     Emin                            G
e---------------------------------------------------------------
B--------------------------5------------------------------5-----
G----------------------------4------------------------------4---
D------4-----4/5---5-----------5-----5-----5/7----5-----------5-
A---------------------------------------------------------------
E---0-----0------0----0-0----------3----3-------3----3-3--------
      D                        
e-------------------------------------------------------------------------------
B-------------------------------------------------------------------------------
G--------------------------------------------------------------12----11----9h11p
D------4---4/5-----7-----5-----4-5------5------5/7---------0------0-------------
A---5----5------5-----5-----5-------5------5--------5---------------------------
E-------------------------------------------------------------------------------

 Chorus/End Jam
        C       G       D    D    D     D
E-------0-------3-------2--h-3----2--h--3--------------------
B-------1-------3-------3----3----3-----3-------------------
G-------0-------0-------2----2----2-----2-------------------
D-------2-------0-------0----0----0-----0------------------
A-------3-------2-------0----0----0-----0------------------
E-------x-------3-------x----x----x-----x-------------------
    C                        G     D     D    D     D
e---0---3-------3------------3-----2--h--3----2--h--3
B---1-----1-------1----------3-----3-----3----3-----3
G---0--------0-------0-------0-----2-----2----2-----2
D---2-------------------2----0-----0-----0----0-----0
A---3------------------------2-----0-----0----0-----0
E---x------------------------3-----x-----x----x-----x-

If you've got a comment question or correction Email me at a_danis@earthlink.net
or if you figure out a simpler or more correct way to do it, feel free to re-tab
 

		   
AcordesyTabs.com © 2008 Acordes y Tablaturas para guitarra. Tabs and Chords for guitar. Aviso Legal - Contacto
El uso de este sitio está sujeto a la aceptación de los términos y condiciones (41 usuarios online)