tablaturas, partituras y acordes para guitarra
Busca por banda/artista:
 
y/o título de la canción:
A B C D E F G H I J K L M N O P Q R S T U V W X Y Z 0 1 2 3 4 5 6 7 8 9 / Top 100 tabs
Categorías
Usuarios
usuario:
Darse de alta
password:
Artistas más visitados
Publicidad
TOP acordes y tablaturas de Creed


Lullaby
de Creed
Puntúa este acorde/tab:      
(0.3/5)
Reportar este acorde/tab
  Añadir a tus favoritos
  Imprimir
Title: Lullaby 
By: Creed
Album: Weathered
Tabbed By: Miller Magno
          (Baguio City Philippines)

I cant find this song in the creed archieve so i decided to tab it
my self.This is my second tabb song that i have tabbed this day.


Intro/ Verse pattern:

--3-2-2------------3-2-7-5---------3b-------------------------------
--------3-1h3-1-1-----------1h3-1-----------------------------------
--------------------------------------------------------------------
--2-2-0---3--------2-2-0-0------------------------------------------
----------------------------3---------------------------------------
--------------------------------------------------------------------

Riff:
-----------------------------------------------------------------
-----------------------------------------------------------------
---4s5s4---------------------------------------------------------
----------2--4s5s4-----4s5---------------------------------------
--------------------5--------------------------------------------
-----------------------------------------------------------------
Lyrics
 Verse 1
Hush my lulla dont you cry
everything will be alright
close your eyes and drift to dream
rest in peace a sleep

 Verse 2
If theres one thing hope i shown you (2x)
hope i shown you
Just give love to us(3x)

 Verse 3
Oh my love in my ars tight
everyday you give me light
as i drift of to your world
rest in peace a sleep

 Verse 4
I know theres onething that u shown me(2x)
that you shown me
just give love to all
lets give love to all

SONG PATTERN:
Intro
verse1
intro
verse2
riff. then intro
verse3
verse4
riff.

If there are any corrections, suggestions feel free to email me 
at "baguio06@yahoo.com" 
		   
AcordesyTabs.com © 2008 Acordes y Tablaturas para guitarra. Tabs and Chords for guitar. Aviso Legal - Contacto
El uso de este sitio está sujeto a la aceptación de los términos y condiciones (22 usuarios online)