tablaturas, partituras y acordes para guitarra
Busca por banda/artista:
 
y/o título de la canción:
A B C D E F G H I J K L M N O P Q R S T U V W X Y Z 0 1 2 3 4 5 6 7 8 9 / Top 100 tabs
Categorías
Usuarios
usuario:
Darse de alta
password:
Artistas más visitados
Publicidad
TOP acordes y tablaturas de Creed


Estás en: Inicio > Letra C > Acordes y tablaturas de Creed > My Sacrifice
My Sacrifice
de Creed
Puntúa este acorde/tab:      
(0.5/5)
Reportar este acorde/tab
  Añadir a tus favoritos
  Imprimir
#-----------------------------------------------------------------------------#
#-- File created with Instab - http://www.pconline.com/~smcarey/instab.html --#
#-----------------------------------------------------------------------------#

Author/Artist: Creed
Title: My Sacrifice
Album: Weathered
Transcribed by: C. David Walters
Email: traildragon@yahoo.com

Drop D, as usual with Creed...This is pretty durn close...
There is still some missing, but this is the basics of 
the song

------------------5-----5---|------------------------|------------------------
---2-----3------------------|3p2-2-3-3--3-2-5/7--7/8-|------------------------
--------------------7-----7-|2---2-2-2--2-2----------|------------------------
-4---4----------7-----7-----|0---0-0-0--0-0-2/4--4/5-|------------------------
-2-----2------5-------------|0---0-0-0--0-0-0----0---|------------------------
------------5---------------|0---0-0-0--0-0-0----0---|------------------------
 part 1                                                repeat part 1          

------------------------------------------------------------------------------
-3p2-2-3-3-3-3---2-2-3---3--3p2-2-3-3-3-3---2-2-3---2----3-------8------------
-2---2-2-2-2-2---2-2-2---2--2---2-2-2-2-2---2-2-2---2----4-------7------------
-0---0-0-0-0-0-x-0-0-0-x-0--0---0-0-0-0-0-x-0-0-0-x-0----4-------5------------
-0---0-0-0-0-0-x-0-0-0-x-0--0---0-0-0-0-0-x-0-0-0-x-0----2-------5------------
-0---0-0-0-0-0-x-0-0-0-x-0--0---0-0-0-0-0-x-0-0-0-x-0------------5------------
 heavy  (verse)                                          strum these two      

-2----------------------------------------------------------------------------
-3---10---10------------------------------------------------------------------
-2---9----11------------------------------------------------------------------
-0---7----9-----------5-5-5-5-5-5-4-x-x-4-0-----------------------------------
-0---7----9-----------5-5-5-5-5-5-4-x-x-4-0-----------------------------------
-0---7----9-----------5-5-5-5-5-5-4-x-x-4-0-----------------------------------
 strum these, and then                     (repeat)                           

------------------------------------------------------------------------------
------------------------------------------------------------------------------
----119-9-9----97-7-7----76-6-6------4/6-6-6-7-6-6/9-97-7-7---------------
--0-x----x-x--0-x---x-x--0-x---x-x--0-0-x-x-x-x-x-x-x---x---x-x---------------
--0-9-7-7-7--0-75-5-5--0-54-4-4--0-0-2/4-4-4-5-4-4/7-75-5-5---------------
--0------0-0--0-----0-0--0-----0-0--0-0---------------------0-0---------------
 bridge:  palm mute the open D chords                          repeat 4 x's   

---6-6-6-6----6-6-6-6------------6-6-6-6----6-6-6-6---------------------------
---x-x-x-x----x-x-x-x------------x-x-x-x----x-x-x-x---------------------------
---3-3-3-3----3-3-3-3------------3-3-3-3----3-3-3-3---------------------------
-0-0-0-0-0--0-0-0-0-0------------0-0-0-0--0-0-0-0-0---0-0-0-------------------
-0----------0-----------------------------0-----------0-0-0-------------------
-0----------0-----------------------------0-----------0-0-0-------------------
 palm mute Open D...hard rest then                         let ring           

------------------------------------------------------------------------------
------------------------------------------------------------------------------
------------------------------------------------------------------------------
------------------------------------------------------------------------------
------------------------------------------------------------------------------
------------------------------------------------------------------------------
 repeat the verse (with minor alterations) then verse, then bridge again      

		   
AcordesyTabs.com © 2008 Acordes y Tablaturas para guitarra. Tabs and Chords for guitar. Aviso Legal - Contacto
El uso de este sitio está sujeto a la aceptación de los términos y condiciones (28 usuarios online)