tablaturas, partituras y acordes para guitarra
Busca por banda/artista:
 
y/o título de la canción:
A B C D E F G H I J K L M N O P Q R S T U V W X Y Z 0 1 2 3 4 5 6 7 8 9 / Top 100 tabs
Categorías
Usuarios
usuario:
Darse de alta
password:
Artistas más visitados
Publicidad
TOP acordes y tablaturas de Creed


Estás en: Inicio > Letra C > Acordes y tablaturas de Creed > My Sacrifice
My Sacrifice
de Creed
Puntúa este acorde/tab:      
(0.3/5)
Reportar este acorde/tab
  Añadir a tus favoritos
  Imprimir
#----------------------------------PLEASE NOTE--------------------------------#
#This file is the author's own work and represents their interpretation of the#
#song. You may only use this file for private study, scholarship, or research.#
#-----------------------------------------------------------------------------#
#-- File created with Instab - http://www.pconline.com/~smcarey/instab.html --#
#-----------------------------------------------------------------------------#

Author/Artist: Creed
Title: My Sacrifice
Album: Weathered
Transcribed by: Bobby Bishop

Drop D Tuning (DADGBe)

Awesome new song by Creed, listen to the song for the changes in the strumming

Intro (Clean with chorus and delay)
------------------5------------------------------------------------------5----
---2-----3-----------------------------------------------2-----3--------------
--------------------7----76-6/7-7--76-6/11-11-11/12----------------------7--
-----0----------5--------x-x-x-x-x--x-x-x-x--x--x--x-------0-----------5------
-2-----2-----0-5---------54-4/5-5--54-4/9--9--9/-10--2-----2------0-5-------
-------------------------0-0-0-0-0--0-0-0-0--0--0--0--------------------------
                                                                              
Verse (Heavy distortion)                            Between verses instead of (5
------------------------------------------9------5------17--------------------
------------------------------------------12-----8------20--------------------
-76-6/7-7--7-7-7-7--76-6/7-7--7-7-7/11--11-----7------19--------------------
-x-x-x-x-x--x-x-x-x--x-x-x-x-x--x-x-x-x---9------5------17--------------------
-54-4/5-5--5-5-5-5--54-4/5-5--5-5-5-9---9------5------17--------------------
-0-0-0-0-0--0-0-0-0--0-0-0-0-0--0-0-0-0---9------5------17--------------------
                                                                              
Chorus (Heavy distortion)
-0----7----9----5-------------------------------------------------------------
-3----10---12---8-------------------------------------------------------------
-2----9----11---7-------------------------------------------------------------
-0----7----9----5-------------------------------------------------------------
-0----7----9----5-------------------------------------------------------------
-0----7----9----5-------------------------------------------------------------
                                                                              
Bridge (Heavy distortion)
--------------------------------------------------------------------------------
--------------------------------------------------------------------------------
-119-9-9---97-7-7---76-6-6-----6/7-7-7--76-6/9-97-7-7----------------------
-xx-x-x-x---x-x-x-x---x-x-x-x-----x-x-x-x--x-x-x-x-x-x-x-x----------------------
-9-7-7-7---75-5-5---54-4-4-----4/5-5-5--54-4/7-75-5-5----------------------
----------0---------0---------0-0-----------------------------------------------
          PM        PM        PM                                                

--------------------------------------------------------------------------------
--------------------------------------------------------------------------------
-15-15-15-15---15-15-15-15------15-15-15-15---15-15-15-15-----------------------
-x--x--x--x----x--x--x--x-------x--x--x--x----x--x--x--x---0-0-0-0--------------
-13-13-13-13---13-13-13-13------13-13-13-13---13-13-13-13--0-0-0-0--------------
-------------0------------------------------0--------------0-0-0-0--------------
             PM                             PM             PM...                

That should do it.  Listen to the song for the strumming patterns.  Now for the 

Hello my friend we meet again
It's been a while where should we begin?
Feels like for ever
Within my heart and memories
A perfect love that you gave to me
Oh I remember

When you are with me 
I'm free
I'm careless, I belive
Above all others we'll fly
This brings tears to my eyes
My sacrifice

We've seen our share of ups and downs oh
How quickly life can turn around
In an instant
It feels so good to reunite
Within yourself and within your mind
Let's find peace there

Cuz when you are with me 
I'm free
I'm careless, I belive
Above all otherss we'll fly
This brings tears to my eyes
My sacrifice

I just want to say hello again
I just want to say hello again

Cuz when you are with me 
I'm free
I'm careless, I belive
Above all others we'll fly
This brings tears to my eyes

Cuz when you are with me 
I'm free
I'm careless, I belive
Above all others we'll fly
This brings tears to my eyes
My sacrifice
My sacrifice
I just want to say hello again
My sacrifice
		   
AcordesyTabs.com © 2008 Acordes y Tablaturas para guitarra. Tabs and Chords for guitar. Aviso Legal - Contacto
El uso de este sitio está sujeto a la aceptación de los términos y condiciones (24 usuarios online)