tablaturas, partituras y acordes para guitarra
Busca por banda/artista:
 
y/o título de la canción:
A B C D E F G H I J K L M N O P Q R S T U V W X Y Z 0 1 2 3 4 5 6 7 8 9 / Top 100 tabs
Categorías
Usuarios
usuario:
Darse de alta
password:
Artistas más visitados
Publicidad
TOP acordes y tablaturas de Christina Aguilera


Estás en: Inicio > Letra C > Acordes y tablaturas de Christina Aguilera > Contigo a la distancia
Contigo a la distancia
de Christina Aguilera
Puntúa este acorde/tab:      
(0.5/5)
Reportar este acorde/tab
  Añadir a tus favoritos
  Imprimir
   <INTRO>  
E|----------------------|------------------------|--------------------|
B|-11-11-11-11-9-14-----|------------------------|--7-11h12-11-11-9-9-|
G|------------------11--|---10h11---------8h9-11-|--------------------|
D|----------------------|---------(11)-----------|--------------------|
A|----------------------|------------------------|--------------------|
E|----------------------|------------------------|--------------------|

G                                     Am 
 Ahora que ya mi vida se encuentra normal
G                                            D7
 que tengo en casa quien sueña con verme llegar
G                                      Am
 Ahora puedo decir que me encuentro de pie
    G         D7    
 Ahora que me va muy bien.

G                                   Am
 Ahora que con el tiempo logre superar
G                                      D7
 aquel amor que por poco me llega a matar
   G
 Ahora ya (ahora ya)
         Am
 No hay mas dolor
   G
 Ahora al fin
     D7
 Vuelvo a ser yo

   <CORO>
                     G
 Pero me acuerdo de ti...
         Am            D7   Am7
 y otra vez pierdo la calma

                     G
 Pero me acuerdo de ti...
      Am             D7    Am7
 y se me desgarra el alma

                     G
 Pero me acuerdo de ti...
      Am          D7    Am7
 y se borra mi sonrisa

                     G
 Pero me acuerdo de ti...
      Am             D7    Am7   G-Am-G-D7
 y mi mundo se hace trizas

   <INTERLUDIO>
E|---------------------------------------------|
B|------------------------------6h7-6----------|
G|-11-10-11-11-11-10-11-8p6-6h8---------8-6-(8)|
D|---------------------------------------------|
A|---------------------------------------------|
E|---------------------------------------------|

G                                   Am
 Ahora que mi futuro comienza a brillar
G                                    D7
 Ahora que me han devuelto la seguridad
    G
 Ahora ya...
         Am
 no hay mas dolor
   G
 ahora al fin
     D7
 vuelvo a ser yo...

   <CORO>
                    G
 Pero me acuerdo de ti...
         Am            D7   Am7
 y otra vez pierdo la calma

                     G
 Pero me acuerdo de ti...
      Am             D7    Am7
 y se me desgarra el alma

                     G
 Pero me acuerdo de ti...
      Am          D7    Am7
 y se borra mi sonrisa

                     G
 Pero me acuerdo de ti...
      Am             D7    Am7   G-Am-G-D7
 y mi mundo se hace trizas

   <SOLO>

E|------------------------------------------------------|----12-10-8-7h8-------------10-8-7h8p7-|
B|-11-11-11-12-10----12--13p12-----------15-------------|------------------8-8-7h8-7------------|
G|----------------12-----------12-11-12------12-11/9/11-|-11------------------------------------|
D|------------------------------------------------------|---------------------------------------|
A|------------------------------------------------------|---------------------------------------|
E|------------------------------------------------------|---------------------------------------|

                   G
 Pero me acuerdo de ti...
         Am            D7   Am7
 
                  G
 Pero me acuerdo de ti...
         Am            D7   Am7
 y se me desgarra el alma

                   G
 Pero me acuerdo de ti...
         Am            D7   Am7
                 mi sonrisa

                   G
 Pero me acuerdo de ti...
         Am            D7   Am7
 mi mundo trizas...

                   G
 Pero me acuerdo de ti...
         Am            D7   Am7 ...
__________________________________________
|----------------------------------------|
|Intérprete Original: CHRISTINA AGUILERA |
|Autor: CHRISTINA AGUILERA		 |
|----------------------------------------|
|SAVO GABRIEL MERINO			 |
|Corrientes-Argentina			 |
|E-mail: savo@merino.net.ar		 |
|Web: http://savo.merino.net.ar		 |
|----------------------------------------|
		   
AcordesyTabs.com © 2008 Acordes y Tablaturas para guitarra. Tabs and Chords for guitar. Aviso Legal - Contacto
El uso de este sitio está sujeto a la aceptación de los términos y condiciones (23 usuarios online)