tablaturas, partituras y acordes para guitarra
Busca por banda/artista:
 
y/o título de la canción:
A B C D E F G H I J K L M N O P Q R S T U V W X Y Z 0 1 2 3 4 5 6 7 8 9 / Top 100 tabs
Categorías
Usuarios
usuario:
Darse de alta
password:
Artistas más visitados
Publicidad
TOP acordes y tablaturas de Christina Aguilera


Estás en: Inicio > Letra C > Acordes y tablaturas de Christina Aguilera > Contigo en la distancia
Contigo en la distancia
de Christina Aguilera
Puntúa este acorde/tab:      
(0.6/5)
Reportar este acorde/tab
  Añadir a tus favoritos
  Imprimir
Esta canción la saque de puro oído, y pienso que esta 100% 
correcta. Pero eso es lo que yo pienso así que si alguien 
tiene algún comentario o sugerencia favor de escribirme a 
micrule2002@hotmail.com
Para que la puedan tocar más fácil les sugiero que la 
escuchen para tomar los tiempos. Y se la dedico a una amiga 
muy especial a la que quiero mucho y me pidio que la sacara 
por que la va a cantar. Eh Karla!!
INTRO

E -----------x-----------------------------------------4--3h4--3--3--
B ----3/6----6----6-------------------3--4/6--6-------------------3--
G -----------7----7-------------3--5----------7-----7-------------4--
D -----------7--7-------3--5---------------------7-------------------
A -----------x-------3------------------------5-------------------5--
E -----------6-----6----------------------------------------------3-

E ------------------------3-----------6--3--------------------------
B ---6--6--4--4--3-----3--4--------4--------3h4—1------------1h2h3--
G ------------------6-----3-----3----------------2--------2---------
D ------------------------5--5-------------------------1------------
A ------------------------3-------------------------3---------------
E ------------------------3----------------------1------------------

E -------------------------1/31-----]
B ---1h2h3p1------------3------------]
G -------------3-----3---------------]
D -------------3--3------------------]
A -----------------------------------]
E -------------1---------------------]

El ritmo original de esta canción es de bolero, pero se 
escucha muchisisimo mejor si se toca arpegiada. Ahí va la 
letra:

    Cm7         F7        A#maj7
No existe un momento del día
        Cm7      Cm7-5    A#maj7 
En que pueda apartarme de ti
    Am7-5  D7          Gm
El mundo    parece distinto
  C7                    Cm7  Cm7-5  F7
Cuando no estas junto a mi

        Eº        Cm7  F7
No hay bella melodía
                 A#maj7  G7
En que no surjas tu
                 Cm7    F7
Ni yo quiero escucharla
                  A#maj7  Am7-5
Si no la escuchas tu

D7                  Gm   A7
Es que te has convertido
               Dm7   G7
En parte de mi alma
              Cm7    F7
Ya nada me consuela
                   A#maj7  G7
Si no estas tu también





Coro:
                 Cm7   Cm7-5
Mas alla de tus labios
     F7          Dm7
Del sol y las estrellas
    Eº            Cm7   
Contigo en la distancia
       F7      A#maj7  Am7-5
Amada mia, estoy…


D7                  Gm   A7
Es que te has convertido
               Dm7   G7
En parte de mi alma
              Cm7    F7
Ya nada me consuela
                   Dm7  G7
Si no estas tu también

                 Cm7   Cm7-5
Mas alla de tus labios
     F7          Dm7    Gm
Del sol y las estrellas
    Eº            Cm7   
Contigo en la distancia
       F7 Am7-5  Dm7-5  G7
Amada mia,    estoy…

Eº               Cm7   
Contigo en la distancia
       F7  A#maj7-5
Amada mia, estoy…



Para mayor facilidad también les doy aquí los tonos (Cosa 
que deberia hacer mucha gente eh!!)

Tonos:

Cm7    335343
F7     131211
A#maj7  6x776x
C#m7-5  x3x342
Am7-5   5x554x
D7     557575
Gm     355333
C7     335353
Eº     x1202x
A7     525255
Dm7    557565
G7     353433
Dm7-5  x5x564
		   
AcordesyTabs.com © 2008 Acordes y Tablaturas para guitarra. Tabs and Chords for guitar. Aviso Legal - Contacto
El uso de este sitio está sujeto a la aceptación de los términos y condiciones (17 usuarios online)