tablaturas, partituras y acordes para guitarra
Busca por banda/artista:
 
y/o título de la canción:
A B C D E F G H I J K L M N O P Q R S T U V W X Y Z 0 1 2 3 4 5 6 7 8 9 / Top 100 tabs
Categorías
Usuarios
usuario:
Darse de alta
password:
Artistas más visitados
Publicidad
TOP acordes y tablaturas de Christina Aguilera


Estás en: Inicio > Letra C > Acordes y tablaturas de Christina Aguilera > Contigo en la distancia
Contigo en la distancia
de Christina Aguilera
Puntúa este acorde/tab:      
(0.3/5)
Reportar este acorde/tab
  Añadir a tus favoritos
  Imprimir
Intro:
Bbmaj7-Cm7-Bbmaj7sus2/D-G7#5-
C7sus4-Cm7-F7sus4-F(b9)-
Bbmaj7-B°7-

    Cm7       F7sus4    Bbmaj7 B°7
No existe un momento del dia
        Cm7     F7sus4    Bbmaj7
en que pueda apartarme de  mi
   Am7b5    D7      Gm  Gm7/9
el mundo parece distinto
 C7(addG)    C7addb9  Cm7       F#7#5 F7sus4 F7    
cuando    no  estas   junto a mi

        Eb       Cm7 F7sus4
No hay bella melodia
   F7            Bbmaj7 Cm7 Bbmaj7sus2/D
en que no surgas tu
  G7#5           Cm7   F7sus4
y no quiero escucharla
    F               Bbadd9 Am7b5(II)
si no la escuchas tu 

    D7               Gm  Gm7/9 Em7b5
Es que te has convertido
 A7#5               Dm Dm+7 Dm7b5
en    parte de mi alma
   G7#5        Cm7  F7sus4
ya nada me consuela
    F              Bbmaj7 Bb7/Ab G7sus4 G7
si no estas tu tambien
                Cm7    Ebm9
mas alla de tus labios
                  Bbadd9  Bbadd9/Ab G7sus4
del sol y las estrellas 
    G7            Cm7
contigo en la distancia
          F7sus4  F(b9)  Bbmaj7 Am7b5(II)
amado   m - - i -  o estoy

D7               Gm  Gm7/9 Em7b5
Es que te has convertido
 A7#5               Dm7 Dm7b5
en    parte de mi alma
   G7#5        Cm7  F7sus4
ya nada me consuela
    F              Dm7b5 G7#5 G7
si no estas tu tambien
                Cm7    C#m7 Dm7 Emb7
mas alla de tus labios
  Ab7            Bbadd9  G7sus4 G7
del  sol y las estrellas 
                 Cm7
contigo en la distancia
          F7sus4  F(b9)   Dm7b5 G7sus4 G(b9)
amado   m - - i -  o estoy

                 Cm7
contigo en la distancia
      F(b9)  Em7b5 Ebm7 Dm7 G7#5 Cm7 C7sus4  F7sus4 F7  
amado mio   estoy                         con---ti----go

Fin en:
Badd9

Acordes:
 Bbmaj7 Cm7 Bbmaj7sus2/D G7#5 C7sus4 F7sus4 F(b9) B°7 Am7b5 D7  Gm  
|--1---|-3-|-----x------|-x--|---3--|---1--|--1--|-x-|--x--|-x-|-3-|
|--3---|-4-|-----6------|-4--|---6--|---1--|--1--|-3-|--1--|-3-|-3-|
|--2---|-3-|-----5------|-4--|---3--|---3--|--2--|-1-|--0--|-5-|-3-|
|--3---|-5-|-----8------|-3--|---5--|---1--|--4--|-3-|--1--|-4-|-5-|
|--1---|-3-|-----5------|-x--|---3--|---3--|--3--|-2-|--0--|-5-|-5-|
|--x---|-x-|-----x------|-3--|---x--|---1--|--1--|-x-|--x--|-x-|-3-|

 Gm7/9 C7(addG) C7addb9 F#7#5 F7  Eb  Bbadd9 Am7b5(II) Em7b5 A7#5 Dm
|--5--|---3----|---x---|--x--|-1-|-x-|---1--|----3----|--x--|--x-|-1-|
|--3--|---1----|---2---|--3--|-1-|-4-|---1--|----1----|--8--|--6-|-3-|
|--3--|---3----|---3---|--3--|-2-|-3-|---3--|----2----|--7--|--6-|-2-|
|--3--|---2----|---2---|--2--|-1-|-5-|---3--|----1----|--8--|--5-|-0-|
|--5--|---3----|---3---|--x--|-3-|-6-|---1--|----0----|--7--|--x-|-x-|
|--3--|---x----|---x---|--2--|-1-|-x-|---x--|----x----|--x--|--5-|-x-|

 Dm+7 Dm7b5 Bb7/Ab G7sus4 G7  Ebm9 Bbadd9/Ab  F  Dm7 C#m7 Ebm7 Ab7 Gb9
|--1-|--x--|---x--|---3--|-3-|--x-|----x----|-1-|-5-|--4-|-6--|-4-|-3-|
|--2-|--6--|---6--|---3--|-3-|--6-|----1----|-1-|-6-|--5-|-7--|-4-|-3-|
|--2-|--5--|---7--|---5--|-4-|--6-|----3----|-2-|-5-|--4-|-6--|-5-|-4-|
|--0-|--6--|---6--|---3--|-3-|--4-|----3----|-3-|-7-|--6-|-8--|-4-|-6-|
|--x-|--5--|---x--|---5--|-5-|--6-|----x----|-3-|-5-|--4-|-6--|-6-|-5-|
|--x-|--x--|---4--|---3--|-3-|--x-|----4----|-1-|-x-|--x-|-x--|-4-|-3-|

Nota:
El acorde C7(addG), se te complicara un poco.
Tocalo de la siguiente manera:

E)--3 Dedo Meñique
B)--1 Dedo Indice(con la parte de lo que es unlado del dedo)
G)--3 Dedo Anular
D)--2 Dedo indice(con la parte de la huella, igual que los demas)
A)--3 Dedo medio(con el que se hacen señas obcenas)
E)--x No se pisa ni se toca

Disfruten!

Si tienes algun comentario, alguna correccion o alguna peticion en especial, 
escribeme a: mr_pro_metalero_inc@yahoo.com.mx
		   
AcordesyTabs.com © 2008 Acordes y Tablaturas para guitarra. Tabs and Chords for guitar. Aviso Legal - Contacto
El uso de este sitio está sujeto a la aceptación de los términos y condiciones (28 usuarios online)