tablaturas, partituras y acordes para guitarra
Busca por banda/artista:
 
y/o título de la canción:
A B C D E F G H I J K L M N O P Q R S T U V W X Y Z 0 1 2 3 4 5 6 7 8 9 / Top 100 tabs
Categorías
Usuarios
usuario:
Darse de alta
password:
Artistas más visitados
Publicidad
TOP acordes y tablaturas de Creed


Estás en: Inicio > Letra C > Acordes y tablaturas de Creed > One Last Breath Correct
One Last Breath Correct
de Creed
Puntúa este acorde/tab:      
(0.3/5)
Reportar este acorde/tab
  Añadir a tus favoritos
  Imprimir
One Last Breath
By Creed

Tabs written out by Monte Cedillo


here is the intro and verse and whatever else....listen to the song and you'll h
h... denotes that you hammer the next note.

E-----2-----5-----0h2-------|----------------------------------------|--2----3--
B-------------------------3-|---2-----3-----5-----2-h3-h2-h0---------|----------
G---------------------------|----------------------------------------|----------
D-----0-----0-----0---------|----------------------------------------|----------
A---------------------------|---0-----0-----0-----0----------0------ |--2----2--
D---------------------------|----------------------------------------|----------


E--------------------------------|--------------2----------|--------------3-----
B--------------2h3h2-------------|------------------3------|-----------------3--
G----------2---------------------|-----------4---------4---|--------------------
D------2-----------------4--5----|-------4-----------------|----------0---------
A----0---------------------------|---2---------------------|-------2------------
D--------------------------------|-------------------------|----3---------------


Chorus:

D          F#
Hold me now

    Bm                             G
I'm Six feet from the edge and i'm thinkin



Bridge:

Em       G       D
Sad eyes follow me
    A              B                   G        
But i still believe there's something left for me




thats pretty much it...have fun and if you find a better way...holla at me ... I

		   
AcordesyTabs.com © 2008 Acordes y Tablaturas para guitarra. Tabs and Chords for guitar. Aviso Legal - Contacto
El uso de este sitio está sujeto a la aceptación de los términos y condiciones (28 usuarios online)