tablaturas, partituras y acordes para guitarra
Busca por banda/artista:
 
y/o título de la canción:
A B C D E F G H I J K L M N O P Q R S T U V W X Y Z 0 1 2 3 4 5 6 7 8 9 / Top 100 tabs
Categorías
Usuarios
usuario:
Darse de alta
password:
Artistas más visitados
Publicidad
TOP acordes y tablaturas de Creed


Estás en: Inicio > Letra C > Acordes y tablaturas de Creed > Six Feet From The Edge
Six Feet From The Edge
de Creed
Puntúa este acorde/tab:      
(0.3/5)
Reportar este acorde/tab
  Añadir a tus favoritos
  Imprimir
-------------6--13----------
----------------------------
--------2-2-----------------
------------------12--------
------6--6------------------
--2-4----------------7------

that was only the intro and the verse its the same.

solo:
-----9-------7/14------------------------
---8------11-----------------------------
-7-----13--------------------------------
-----------------------14--------------2- times
-----------------------------------------
-----------------------------------------
i hope you like it.
good bye my guitar frends.
		   
AcordesyTabs.com © 2008 Acordes y Tablaturas para guitarra. Tabs and Chords for guitar. Aviso Legal - Contacto
El uso de este sitio está sujeto a la aceptación de los términos y condiciones (21 usuarios online)