tablaturas, partituras y acordes para guitarra
Busca por banda/artista:
 
y/o título de la canción:
A B C D E F G H I J K L M N O P Q R S T U V W X Y Z 0 1 2 3 4 5 6 7 8 9 / Top 100 tabs
Categorías
Usuarios
usuario:
Darse de alta
password:
Artistas más visitados
Publicidad
TOP acordes y tablaturas de Raxas


Estás en: Inicio > Letra R > Acordes y tablaturas de Raxas > Corazas De Fuego
Corazas De Fuego
de Raxas
Puntúa este acorde/tab:      
(0.3/5)
Reportar este acorde/tab
  Añadir a tus favoritos
  Imprimir
      Este es el riff del intro:
               ~~~~~
|----------------------------------|
|----------------------------------|
|----------------------------------|
|----------------------------------|
|-5p2-2-2-2-2-2-5h7p5S4h5p4-[4]S2--|
|----------------------------------|


                             ~~~
|------------------------|---------|
|------------------------|---------|
|------------------------|---------|
|----------------------2-|--[4]----|
|-2-2-2-2-2-2-5h7-4h5----|---------|
|------------------------|---------|


|-------------------------------|
|-------------------------------|
|-------------------------------|
|-------------------------------|
|-2-2-2-------5-4-[4]s2-2-2-2-2-|
|-------3-3-3-------------------|




|-------------------------|-------|
|-------------------------|-------|
|-------------------------|-------|
|-------------------------|-------|
|-5h7p5S4h5p4-[4]S2-2-2-2-|-2-2-2-|
|-------------------------|-------|


|---------------|----------------------------|
|---------------|----------------------------|
|---------------|----------------------------|
|-------------2-|-[4]------------------------|
|-2-2-5h7-4h5---|------2-2-2-------5-4-[4]s2-|
|---------------|------------3-3-3-----------|



Con corazas de fuego 
en sus corceles negros
con una gran ambición 
cuantos quieran que fueran 
vidas cuantas quisiera 
y sin tener compasión


          
|---------|----------|------|
|---------|----------|------|
|---------|----------|------|
|---------|-7--6--2--|-4----|
|-2-2-2-2-|-5--4--0--|-2----|
|---------|----------|------|


|---------------|---------------|
|---------------|---------------|
|---------------|---------------|
|-7--6--2-------|-7--6--2--4----|
|-5--4--0--5----|-5--4--0--2----|
|----------3----|---------------|


coro
atacaran, defenderán 
ellos sus vidas
                             ~~~~
|------------------------------------|
|------------------------------------|
|----7-6-7---7-6-7--4--7-6-7-9b11----|
|----------5-------------------------|
|-5----------------------------------|
|-3----------------------------------|


mas morirán si ocupan hoy 
una nación
                                   ~
|---------------------------------------|
|---------------------------------------|
|-7--6--7-----7--6--7--4--7--6--7--4----|
|----------5----------------------------|
|---------------------------------------|
|---------------------------------------|


se repite los riffs y los acordes:

con sotanas oscuras 
hoces y armaduras
cual lobos hambrientos estaban
un banquete se encuentran 
débiles pecadores
el fuego de su 

coro
atacaran, defenderán 
ellos sus vidas
mas morirán si ocupan hoy 
una nación



|------|
|------|
|-4----|
|-4----|
|-2----|
|------|


aquí va una parte del solo:
(los o significan que se repite)
||--------------------------------------------||
||o------------------------------------------o||
||--------------------------------------------||
||--------2---4-2-5--5-5-5-2-4---2------------||
||o-2-5-4---5------------------5---4-5-4-4-2-o||
||--------------------------------------------||


                  ~                               ~
|--------------|----------------------|------------|
|--------------|----------------------|------------|
|--------------|----------------------|------------|
|--------------|---------2-4-2-0-2-4--|--4b5r---4--|
|-4b4.5-(4)b5--|--2--4-5--------------|------------|
|--------------|----------------------|------------|


          ~~           ~~          ~                            ~
|-------------------|-----------------|----------10-14-10-----------|
|-------------------|-----------------|-------12----------12--------|
|-------------------|-----------------|----11----------------11-----|
|---9-11-12----9-11-|-12--8h9h11-8-9--|--9----------------------9---|
|-9----------9------|-----------------|-----------------------------|
|-------------------|-----------------|-----------------------------|


               ~~                  ~~                              ~~
|-------------------|-------------------|----------------------------|
|-------12-14-12----|-------12-14-12----|-12-14-14b15r=14pb15--12-14-|
|-11-11-------------|-11-11-------------|----------------------------|
|-------------------|-------------------|----------------------------|
|-------------------|-------------------|----------------------------|
|-------------------|-------------------|----------------------------|

aquí me falta una parte:
  |----------14-12-|----------------|----------------|
  |-12-14-15-------|-7--------7-----|-7--------7-----|
  |----------------|-9b11r---(9)----|-9b11r---(9)----|
  |----------------|----------------|----------------|
  |----------------|----------------|----------------|
  |----------------|----------------|----------------|


                          ~~~~~~~~~
|-------------------------------------|
|-------------------------------------|
|---7-7---7-7---7-7---7-9-9b11r(9)----|
|-9-----9-----9-----9-----------------|
|-------------------------------------|
|-------------------------------------|


           ~               ~                        ~~
|---------------|------------|---------------------------|
|---------------|------------|---------------------------|
|---------------|------------|---------------------------|
|-----9-11-9----|-----9-11-9-|-9-11-11b12-(11)--9h=11----|
|-9-9-----------|-9-9--------|---------------------------|
|---------------|------------|---------------------------|


                                                                 ~~~~~
|-----------------------------9----9-10-12-10----10-12-10-10-12-12b14--|
|------------------10-8-10-12---12------------12-----------------------|
|---7-9-11-9-11-12-----------------------------------------------------|
|-9--------------------------------------------------------------------|
|----------------------------------------------------------------------|
|----------------------------------------------------------------------|


y esta es una parte que va rápido con tapping

   T       T       T       T       T       T
|-14p10p7-14p10p7-14p10p7-14p10p7-14p10p7-14p|-10p7----|
|--------------------------------------------|---------|
|--------------------------------------------|---------|
|--------------------------------------------|---------|
|--------------------------------------------|---------|
|--------------------------------------------|---------|


los acordes del final

|-----|-----|---|-----|------|----------|
|-----|-----|---|-----|------|----------|
|-----|-----|---|-----|------|----------|
|-4-4-|-4-4-|-4-|-(4)-|-7--6-|-2--4----|
|-2-2-|-2-2-|-2-|-(2)-|-5--4-|-0--2----|
|-----|-----|---|-----|------|----------|
		   
AcordesyTabs.com © 2008 Acordes y Tablaturas para guitarra. Tabs and Chords for guitar. Aviso Legal - Contacto
El uso de este sitio está sujeto a la aceptación de los términos y condiciones (19 usuarios online)