tablaturas, partituras y acordes para guitarra
Busca por banda/artista:
 
y/o título de la canción:
A B C D E F G H I J K L M N O P Q R S T U V W X Y Z 0 1 2 3 4 5 6 7 8 9 / Top 100 tabs
Categorías
Usuarios
usuario:
Darse de alta
password:
Artistas más visitados
Publicidad
TOP acordes y tablaturas de Creed


Estás en: Inicio > Letra C > Acordes y tablaturas de Creed > With Arms Wide Open
With Arms Wide Open
de Creed
Puntúa este acorde/tab:      
(0.3/5)
Reportar este acorde/tab
  Añadir a tus favoritos
  Imprimir
This is the correct way to play it  trust me

Dropped D tuning


      ____                      ____               _____   ___                  
 e|-----------------------------------------------------------------------------
 b|---0--1------------1---------1--3-----1---------0-1-0---0-1---------1--1-----
 g|----------0------------0-------------------3---------------------0-----------
 d|-------------0-------------------------------------------------------0-------
 a|---3------------3---------3---------3---------3-----------2-----------2------
D|------------------------------------------------------------------------------
      1. Well,

     ___                       _____                        ___                 
e|------------------------------------------------------------------------------
b|---0-1------------1----------0-1-0-------------0----------0-1-------------1---
g|---------0------------0---------------0-------------0------------0------------
d|------------0-----------------------------0---------------------------0-------
a|---0-----------0---------0-------------------0---------0---0------------0-----
D|------------------------------------------------------------------------------
       I just heard_____                                        the news to-day_
       seems my life_____                                     is gon-na change__
       close my eyes_____                                     be-gin to pray,___
       tears of joy_____                                        stream down my f

________________________________________________________________________________
      o-pen,_____                                                un-der_____ the

e|------------------------------------------------------------------------------
b|---6--------------------------------------------------------------------------
g|---5--------------------------------------------------------------------------
d|---3--------------------------------------------------------------------------
a|---3--------------------------------------------------------------------------
D|---3--------------------------------------------------------------------------
________________________________________________________________________________

       to                  this          place,_____          I’ll show you__ ev



e|---0------------------------------------------------------0---------------5---
b|---0------------------------------------------------------0---------------5---
g|---4------------------------------------------------------4---------------7---
d|---2------------------------------------------------------2---------------7---
a|---2------------------------------------------------------2---------------5---
D|---2------------------------------------------------------2-------------------
________________________________________________________________________________

o-pen,_____                                                                     

     ___                      ___               _____   ___                    _
e|------------------------------------------------------------------------------
b|---0-1------------1---------1-3-----1---------0-1-0---0-1------------1-------1
g|---------0------------0-----------0-----0---------------------0------------0--
d|-------------------------------------------------------------------0----------
a|---------------3-----------------------------3------------------------2-------
D|------------------------------------------------------------------------------
________________________________________________________________________________
       o-pen._____                                                              

       __                            __                          ___            
e|------------------------------------------------------------------------------
b|---0-1-----------1--------3-1-----------1-------0-1-----------1--------0-1-0--
g|---------0-----------0----------0-----------0----------0-----------0----------
d|------------0-----------------------0----------------------0------------------
a|------------------------------------------------------------------------------
D|------------------------------------------------------------------------------



I don’t know/if I’m ready/to be the man/I have to be/I’ll take a breath/I’ll tak

Now for the solo....
                                                       ~~~~~~~~~~~~~~~~~~
e|------------------------------------------------------------------------------
b|-------------------5---6------6---6---5-------------------------------------5-
g|--5----5----7--------------------------------------------------------5--7-----
d|------------------------------------------------------------------------------
a|------------------------------------------------------------------------------
D|------------------------------------------------------------------------------

                                                                    bend whole s
e|------------------------------------------------------------------------------
b|------------5---8---6---5-6-5-6-5-6-5-6-8---10-(12)--8------------------------
g|---5---7----------------------------------------------------------------------
d-------------------------------------------------------------------------------
a|------------------------------------------------------------------------------
D|------------------------------------------------------------------------------




thats about it   e-mail me if you have any questions   Blnk182ModenaF50@aol.com
the chorus is the same chrods as when u first start strumming    
first part of the song is finger picked
the second verse has different chords  i dont have time to put them down
so e-mail me if u want them
		   
AcordesyTabs.com © 2008 Acordes y Tablaturas para guitarra. Tabs and Chords for guitar. Aviso Legal - Contacto
El uso de este sitio está sujeto a la aceptación de los términos y condiciones (20 usuarios online)