tablaturas, partituras y acordes para guitarra
Busca por banda/artista:
 
y/o título de la canción:
A B C D E F G H I J K L M N O P Q R S T U V W X Y Z 0 1 2 3 4 5 6 7 8 9 / Top 100 tabs
Categorías
Usuarios
usuario:
Darse de alta
password:
Artistas más visitados
Publicidad
TOP acordes y tablaturas de Distillers


Estás en: Inicio > Letra D > Acordes y tablaturas de Distillers > Sick of it all
Sick of it all
de Distillers
Puntúa este acorde/tab:      
(0.4/5)
Reportar este acorde/tab
  Añadir a tus favoritos
  Imprimir
The 
 
Album: Give'em The Boot III
Tuning: Standard
Tabbed by: Spidey255

Intro
G|-----------------|--------------------------------------|
D|-----------------|------9-----------9-------------------|
A|-7~-7~---5---5-7-|-7777---10-9-7777---10-9------5---5-7-|
E|-------3---7-----|-------------------------3333---5-----|

Verse
G|-----------------------------------------------|
D|----------------------------9-----------9------|
A|--------2-3-555555---5-7777---10-9-7777---10-9-|
E|-333333------------7---------------------------|

Interlude
G|-------------------------------------------|
D|-------------------------------------------|
A|-7777-5-8-10-7777-5-8-10----------55555555-|
E|-------------------------33333333----------|

G|-----------------------------------------|
D|-----------------------------------------|
A|-7777-5-8-10-7777-5-8-10------5---5-7777-|
E|-------------------------3333---7--------|

-verse
-intro

Bridge
G|--------------------------------------------------------------------|
D|--------------------------------------------------------------------|
A|-7777777777777777------------------5555555555555----7777----7777----|
E|------------------3333333333333333---------------77------55------55-|


G|--------------------------------------------------------------------|
D|--------------------------------------------------------------------|
A|-----------------------------------5555555555555----7777----7777----|repeat until it
E|-0000000000000000-3333333333333333---------------77------55------55-|gets fast again

Faster Bridge
G|-------------------------------------------------------|
D|------9-----------9-------------5--------------5-------|
A|-7777---10-9-7777---10-9----3-5---5-3-2----3-5---5-3-2-|
E|-------------------------33-------------33-------------|

(cont.)
G|--------7--------------7-----------------------|
D|----5-7---7-5-4----5-7---7-5-4-----------------|
A|-55-------------55-------------7777----7777----|
E|------------------------------------55------55-|

repeat the first part of the faster bridge then do this
G|------------5-6-7-9-10-7-5---------------------------|
D|----4-5-6-7----------------8-7-5---------------------|
A|-55------------------------------8-7-5-7777----7777~-|
E|--------------------------------------------55-------|
		   
AcordesyTabs.com © 2008 Acordes y Tablaturas para guitarra. Tabs and Chords for guitar. Aviso Legal - Contacto
El uso de este sitio está sujeto a la aceptación de los términos y condiciones (11 usuarios online)