tablaturas, partituras y acordes para guitarra
Busca por banda/artista:
 
y/o título de la canción:
A B C D E F G H I J K L M N O P Q R S T U V W X Y Z 0 1 2 3 4 5 6 7 8 9 / Top 100 tabs
Categorías
Usuarios
usuario:
Darse de alta
password:
Artistas más visitados
Publicidad
TOP acordes y tablaturas de La Pestilencia


Estás en: Inicio > Letra L > Acordes y tablaturas de La Pestilencia > Cordero Arrepentido
Cordero Arrepentido
de La Pestilencia
Puntúa este acorde/tab:      
(1.1/5)
Reportar este acorde/tab
  Añadir a tus favoritos
  Imprimir
INTRO

e-----------------------------------------------
B-----------------------------------------------
G-----------------------------------------------
D-----------------------------------------------
A--2-2-7-7-5-5-5-7-5-7-2--2-2-7-7-5-5-5-7-5-7-2-
E-----------------------------------------------


A olvidado a sus amigos......

e----------------
B----------------
G----------------
D----------------
A--5-6-3-5-6-3---
E----------------

Y DESPUÉS IGUAL COMO EN LA INTRODUCCIÓN HASTA QUE DICE: 
“Sigue en tu camino y no te metas en el mío”..

e----------------
B----------------
G----------------
D----------------
A--5-6-3-5-6-3---
E----------------


e-------------------7v-------------------5v-
B-------------------------------------------
G-------------------------------------------
D-------------------------------------------
A-5-3-5-5-3-5-5-3-5----5-3-5-5-3-5-5-3-5----
E-------------------------------------------
		   
AcordesyTabs.com © 2008 Acordes y Tablaturas para guitarra. Tabs and Chords for guitar. Aviso Legal - Contacto
El uso de este sitio está sujeto a la aceptación de los términos y condiciones (27 usuarios online)