tablaturas, partituras y acordes para guitarra
Busca por banda/artista:
 
y/o título de la canción:
A B C D E F G H I J K L M N O P Q R S T U V W X Y Z 0 1 2 3 4 5 6 7 8 9 / Top 100 tabs
Categorías
Usuarios
usuario:
Darse de alta
password:
Artistas más visitados
Publicidad
TOP acordes y tablaturas de Enanitos Verdes


Cordillera
de Enanitos Verdes
Puntúa este acorde/tab:      
(0.4/5)
Reportar este acorde/tab
  Añadir a tus favoritos
  Imprimir
                    >>>> La Cordillera <<<<

Ya habia subido este solo pero acabo de sacar este y suena un poco mejor que aquel
este esta un poco laborioso, pero suena chido, y con practica es facil hechenle ganas

1------------------------T--------------------------------------------------------------
2-----------------8v(10)-11h8v(10)-8--------T----------T--------------------------------
3-7v(9)-9-7-5---5---------------------5v(7)-12h7h5p7p9-12h9h7h5-T------------T----------
4-------------7-------------------------------------------------12h9h7h5p7p9-12h9h7h5---
5---------------------------------------------------------------------------------------
6---------------------------------------------------------------------------------------

1-----------------------------------------------------------------------------------
2-----------------TTTTTTTTTTTTTTTTTTTT--T--T->>>---------------------T--------------
3---------------5-777777777788889999910-10-10>>>-Se arrastra hast el 17-------------
4--T--------------------------------------------------------------------------------
5--12h9h7h5p7~~---------------------------------------------------------------------
6-----------------------------------------------------------------------------------

1--------------------------------------------------------------------19v(21)--------
2----------------------19v(21)-21-19------19-20v(22)-22-20-19------19---------------
3-19v(21)-19-17------19--------------21-19--------------------21-19-----------------
4---------------21-19---------------------------------------------------------------
5-----------------------------------------------------------------------------------
6-----------------------------------------------------------------------------------

  T        T        T
1-24h21h19-24h21h19-24h21h19-19sss5----
2--------------------------------------
3--------------------------------------
4--------------------------------------
5--------------------------------------
6--------------------------------------

Algun error escribanme a mi email yomero_84@hotmail.com
hasta luego
		   
AcordesyTabs.com © 2008 Acordes y Tablaturas para guitarra. Tabs and Chords for guitar. Aviso Legal - Contacto
El uso de este sitio está sujeto a la aceptación de los términos y condiciones (69 usuarios online)