tablaturas, partituras y acordes para guitarra
Busca por banda/artista:
 
y/o título de la canción:
A B C D E F G H I J K L M N O P Q R S T U V W X Y Z 0 1 2 3 4 5 6 7 8 9 / Top 100 tabs
Categorías
Usuarios
usuario:
Darse de alta
password:
Artistas más visitados
Publicidad
TOP acordes y tablaturas de Fiel a la Vega


Cositas así
de Fiel a la Vega
Puntúa este acorde/tab:      
(0.4/5)
Reportar este acorde/tab
  Añadir a tus favoritos
  Imprimir
Esta es solo la Intro luego pongo la cancion completa.

E--------------5----------------------4-------------------0--------------------0-------
B-----------5---5-----------------5----5-------------------7--------------------0----
G---------6--------------------6-----------------------6------6-------------6-----6--
D--7--7------------7--7--7--------------7---7--7------------7---7--7---------7-
A--0--------------------0-----------------------0---------------------0----------------
E------------------------------------------------------------------------------------------

E----------------------0---------0-------------------------------------------------------
B------------0-0----------0---------0-----0-------------------------------------------
G-------2---------2---------2---------2------------------------------------------------
D----4------------------------------------------------------------------------------------
A------------------------------------------------------------------------------------------
E------------------------------------------------------------------------------------------
		   
AcordesyTabs.com © 2008 Acordes y Tablaturas para guitarra. Tabs and Chords for guitar. Aviso Legal - Contacto
El uso de este sitio está sujeto a la aceptación de los términos y condiciones (11 usuarios online)