tablaturas, partituras y acordes para guitarra
Busca por banda/artista:
 
y/o título de la canción:
A B C D E F G H I J K L M N O P Q R S T U V W X Y Z 0 1 2 3 4 5 6 7 8 9 / Top 100 tabs
Categorías
Usuarios
usuario:
Darse de alta
password:
Artistas más visitados
Publicidad
TOP acordes y tablaturas de Him


Estás en: Inicio > Letra H > Acordes y tablaturas de Him > Wicked game
Wicked game
de Him
Puntúa este acorde/tab:      
(0.2/5)
Reportar este acorde/tab
  Añadir a tus favoritos
  Imprimir

HIM - Wicked Game

tabbed by rylos@web.de

Guitar
e |-0-x-x-x-x-x-x-2-x-x-x-x-x-x-3-x-x-x-----------------|
B |-0-x-x-x-x-x-x-4-x-x-x-x-x-x-3-x-x-x-----------------|
G |-1-x-x-x-x-x-x-4-x-x-x-x-x-x-4-x-x-x-----------------|
D |-2-x-x-x-x-x-x-4-x-x-x-x-x-x-5-x-x-x-----------------|
A |-2-x-x-x-x-x-x-2-x-x-x-x-x-x-5-x-x-x-9-7-------------|
E |-0-x-x-x-x-x-x-2-x-x-x-x-x-x-3-x-x-x-----9-7-x-x-x-7-|

Bass
G |-----------------------------------------------------|
D |-----------------------------------------------------|
A |-2-2-2-2-2-2-2-0-0-0-0-0-0-0-------------------------|
E |-----------------------------0-0-0-0-0-0-0-0-0-0-0-0-|

The bass-riff continous through the whole song, the most
difficult is, that you dont fall asleep while playing the 
bass-riff.

When the guitar-riff comes to the chorus there is played
a solo, that i havent tabbed. After the 2nd chorus the is 
another solo (also not tabbed yet).

At 2:45 is a heavy distorted pick slide.

Although the guitarist plays this the whole time:

e |-x-|
B |-x-| repeat this
G |-x-| many, many
D |-x-| times
A |-x-|
E |-x-|

and

e |---------|
B |---------| this is the  
G |---------| bridge after
D |---------| the many
A |-9-7-----| ghost notes
E |-----9-7-| above

		   
AcordesyTabs.com © 2008 Acordes y Tablaturas para guitarra. Tabs and Chords for guitar. Aviso Legal - Contacto
El uso de este sitio está sujeto a la aceptación de los términos y condiciones (27 usuarios online)