tablaturas, partituras y acordes para guitarra
Busca por banda/artista:
 
y/o título de la canción:
A B C D E F G H I J K L M N O P Q R S T U V W X Y Z 0 1 2 3 4 5 6 7 8 9 / Top 100 tabs
Categorías
Usuarios
usuario:
Darse de alta
password:
Artistas más visitados
Publicidad
TOP acordes y tablaturas de Cure


Estás en: Inicio > Letra C > Acordes y tablaturas de Cure > Going Nowhere
Going Nowhere
de Cure
Puntúa este acorde/tab:      
(0.1/5)
Reportar este acorde/tab
  Añadir a tus favoritos
  Imprimir
going nowhere

by the Cure

from the fabulous new album 'the cure'

transcribed by Christian Reindel(creindel@gmx.de)
any questions or corrections- e-mail me


Part 1 - 2 times

  guitar 1 (acoustic)                      
E|---0---------------------0------------0--------------------0--|
B|---0---------------------0------------0--------------------0--|
G|---0---------------------0------------0--------------------0--|
D|---2---------------------2------------2--------------------2--|
A|---2---------------------3------------2--------------------3--|
E|--------------------------------------------------------------|

  guitar 2
E|--------------------------------------------------------------|
B|--------------------------------------------------------------|
G|-------------------------------------------------7-7----------|
D|--9-9--7-7-------------------9---------9-9--7-7-------9-9-----|
A|------------10-10--9-9--7-7----10-------------------------10--|
E|--------------------------------------------------------------|


Part 2 - 2 times - keyboardsolo

  guitar 1 (acoustic)                      
E|---0---------------------0------------0--------------------0--|
B|---0---------------------0------------0--------------------0--|
G|---0---------------------0------------0--------------------0--|
D|---2---------------------2------------2--------------------2--|
A|---2---------------------3------------2--------------------3--|
E|--------------------------------------------------------------|


Part 3 - 1 time

  guitar 1 (acoustic)              2x                                         1x
E|---0---------------------0------------0--------------------0--|----0----------
B|---0---------------------0------------0--------------------0--|----0----------
G|---0---------------------0------------0--------------------0--|----0----------
D|---2---------------------2------------2--------------------2--|----2----------
A|---2---------------------3------------2--------------------3--|----2----------
E|--------------------------------------------------------------|---------------

  guitar 2                          2x                                        1x
E|--------------------------------------------------------------|---------------
B|--------------------------------------------------------------|---------------
G|--------------------------------------------------7-7---------|--------------7
D|--9-9--7-7-------------------9---------9-9--7-7-------9-9-----|----9-9--7-7---
A|------------10-10--9-9--7-7----10--------------------------10-|---------------
E|--------------------------------------------------------------|---------------


Part 4 - 4 times

  guitar 1 (acoustic)                      
E|---0---------------------0------------0--------------------0--|
B|---0---------------------0------------0--------------------0--|
G|---0---------------------0------------0--------------------0--|
D|---2---------------------2------------2--------------------2--|
A|---2---------------------3------------2--------------------3--|
E|--------------------------------------------------------------|


I'm going nowhere - Don't look so scared
I'm going nowhere - Don't look

So tell me that you love me again - tell me that you care
Oh tell me that you love me again 


Part 5 - 1 time

  guitar 1 (acoustic)              2x                                           
E|---0---------------------0------------0--------------------0--|----0----------
B|---0---------------------0------------0--------------------0--|----0----------
G|---0---------------------0------------0--------------------0--|----0----------
D|---2---------------------2------------2--------------------2--|----2----------
A|---2---------------------3------------2--------------------3--|----2----------
E|--------------------------------------------------------------|---------------
  
  guitar 2                          2x                                          
E|--------------------------------------------------------------|---------------
B|--------------------------------------------------------------|---------------
G|--------------------------------------------------7-7---------|--------------7
D|--9-9--7-7-------------------9---------9-9--7-7-------9-9-----|----9-9--7-7---
A|------------10-10--9-9--7-7----10--------------------------10-|---------------
E|--------------------------------------------------------------|---------------


Yeah I'm going nowhere - Don't look so scared 

I'm going nowhere - Could be  Could be  Could be  -  I'm already there?


end.
		   
AcordesyTabs.com © 2008 Acordes y Tablaturas para guitarra. Tabs and Chords for guitar. Aviso Legal - Contacto
El uso de este sitio está sujeto a la aceptación de los términos y condiciones (24 usuarios online)