tablaturas, partituras y acordes para guitarra
Busca por banda/artista:
 
y/o título de la canción:
A B C D E F G H I J K L M N O P Q R S T U V W X Y Z 0 1 2 3 4 5 6 7 8 9 / Top 100 tabs
Categorías
Usuarios
usuario:
Darse de alta
password:
Artistas más visitados
Publicidad
TOP acordes y tablaturas de Cure


Lullaby
de Cure
Puntúa este acorde/tab:      
(0.2/5)
Reportar este acorde/tab
  Añadir a tus favoritos
  Imprimir
Tabbed by: Darren Bencosky
Standard tuning

Rhythm
---4-----------4------4-----------4-----------
---x-----------x------x-----------x-----------
---4-----------4------4-----------4-----------
---2--------2--2------2--------2--2-----------
-4-4--4--4-----4---4--4---4-4-----4-----------
----------------------------------------------

then..
------------------------------------------
------------------------------------------
----2------------2-------2-------2--------
----2---------2--2-------2-------2--------
-0--0---0--0-----0---0---0--0-0--0--------
------------------------------------------
This is played until "and I feel like I'm being eaten"
after that it just changes one key lower

LEAD
the lead comes in right after the first chord
on rhythm is struck
---------------------------------4-------------4------
----------------------5-5--7-7---------5--7-7---------
-4-6-6-6-pause-4-6-6----------------6--------------6--
------------------------------------------------------
------------------------------------------------------
------------------------------------------------------
this is played 2X

KEYBOARD PART arranged for guitar
-7~~~~------------7--------------------------------
---------9~~~~-------9--7---9---5------------------
-4~~~~------------4--------------------------------
---------6~~~~-------6--4---6---2------------------
---------------------------------------------------
---------------------------------------------------
you can just play the top note and it'll still sound
correct but I used 'Octaves' to get the keyboard sound

		   
AcordesyTabs.com © 2008 Acordes y Tablaturas para guitarra. Tabs and Chords for guitar. Aviso Legal - Contacto
El uso de este sitio está sujeto a la aceptación de los términos y condiciones (39 usuarios online)