tablaturas, partituras y acordes para guitarra
Busca por banda/artista:
 
y/o título de la canción:
A B C D E F G H I J K L M N O P Q R S T U V W X Y Z 0 1 2 3 4 5 6 7 8 9 / Top 100 tabs
Categorías
Usuarios
usuario:
Darse de alta
password:
Artistas más visitados
Publicidad
TOP acordes y tablaturas de Cure


Estás en: Inicio > Letra C > Acordes y tablaturas de Cure > Out Of This World
Out Of This World
de Cure
Puntúa este acorde/tab:      
(0.3/5)
Reportar este acorde/tab
  Añadir a tus favoritos
  Imprimir

Out of this world

chords

Em   Em/F#  G6    Bm    Em9   D7   C7   Bm7  A7     D    D/E   
0    0      0     #     #     5    3    2    #      #    #
0    0      0     7     7     7    5    3    2-3-5  7    7     
0    0      0     7     7     5    3    2    0      7    7
2    2      0     #     5     7    5    4    2      #    #
2    #      2     5     7     5    3    2    0      5    7
0    2      3     7     #     #    #    #    #      #    #


Em       Em/F# G6  (3x)
Bm             Em9 (3x)
D7     C7      Bm7 (3x)
A7
D              Em9 (4x)

riff 1
 D        Em9 
-----------------
-------5-------7-
-----0-------0---
---4-------5-----
-5-------7-------
-----------------

solo

    D                    Em9            D              Em9
----------------------------------------------------------
----------------------------------------------------------
----14-14-14-12-11-12-11----------------14-14-14-12-11----
-12----------------------12----------12----------------12-
----------------------------------------------------------
----------------------------------------------------------

    D                    Em9            D              Em9
----------------------------------------------------------
----------------------------------------------------------
----14-14-14-12-11-12-11----------------------------11----
-12----------------------12----------12-12-------12----12-
----------------------------------------------------------
----------------------------------------------------------

verse
D     Em9

WHEN WE LOOK BACK AT IT ALL AS I KNOW WE WILL 
YOU AND ME, WIDE EYED 
I WONDER... 
WILL WE REALLY REMEMBER HOW IT FEELS TO BE THIS ALIVE? 

chorus
Bm    D/E

AND I KNOW WE HAVE TO GO 
I REALIZE WE ONLY GET TO STAY SO LONG 
ALWAYS HAVE TO GO BACK TO REAL LIVES

D     Em9
 
WHERE WE BELONG 
WHERE WE BELONG 
WHERE WE BELONG 

verse
D     Em9

WHEN WE THINK BACK TO ALL THIS AND I'M SURE WE WILL 
ME AND YOU, HERE AND NOW 
WILL WE FORGET THE WAY IT REALLY IS 
WHY IT FEELS LIKE THIS AND HOW?

chorus
Bm    D/E 

AND WE ALWAYS HAVE TO GO I REALIZE 
WE ALWAYS HAVE TO SAY GOODBYE 
ALWAYS HAVE TO GO BACK TO REAL LIVES 

D7     C7      Bm7

BUT REAL LIVES ARE THE REASON WHY 
WE WANT TO LIVE ANOTHER LIFE 
WE WANT TO FEEL ANOTHER TIME
   A7 
ANOTHER TIME... 
             
yeah ANOTHER TIME 

D     Em9

to feel another time...

solo 

verse
D     Em9

WHEN WE LOOK BACK AT IT ALL AS I KNOW WE WILL 
YOU AND ME, WIDE EYED 
I WONDER... 
WILL WE REALLY REMEMBER HOW IT FEELS TO BE THIS ALIVE? 

chorus
Bm    D/E 

AND I KNOW WE HAVE TO GO 
I REALIZE WE ALWAYS HAVE TO TURN AWAY 
ALWAYS HAVE TO GO BACK TO REAL LIVES 

D7     C7      Bm7

BUT REAL LIVES ARE WHY WE STAY 
FOR ANOTHER DREAM 
ANOTHER DAY 
FOR ANOTHER WORLD 
ANOTHER WAY 
     A7
FOR ANOTHER WAY... 

D     Em9
ONE LAST TIME BEFORE IT'S OVER 
ONE LAST TIME BEFORE THE END 
ONE LAST TIME BEFORE IT'S TIME TO GO AGAIN... 

    |-|
   -----
  -|-|-/       
 

AcordesyTabs.com © 2008 Acordes y Tablaturas para guitarra. Tabs and Chords for guitar. Aviso Legal - Contacto
El uso de este sitio está sujeto a la aceptación de los términos y condiciones (24 usuarios online)