tablaturas, partituras y acordes para guitarra
Busca por banda/artista:
 
y/o título de la canción:
A B C D E F G H I J K L M N O P Q R S T U V W X Y Z 0 1 2 3 4 5 6 7 8 9 / Top 100 tabs
Categorías
Usuarios
usuario:
Darse de alta
password:
Artistas más visitados
Publicidad
TOP acordes y tablaturas de Boikot


Estás en: Inicio > Letra B > Acordes y tablaturas de Boikot > Cualquier día
Cualquier día
de Boikot
Puntúa este acorde/tab:      
(0.4/5)
Reportar este acorde/tab
  Añadir a tus favoritos
  Imprimir
CANCION: kUALKIER DIA
ARTISTA: PIPERRAK*

*:ESTA CANCION ES DE PIPERRAK PERO YO LA HE TABULADO COMO LA TOCA BOIKOT EN EL ULTIMO DISCO


(SIN DISTORSION)
e|--------------------------------------------------------------|
B|--------------------------------------------------------------|
G|--------------------------------------------------------------|
D|---------4-----4----4-------4---------------------------------|
A|-2-2-2-2---2-2---2-2--2-2-2------------5-----5-----6--------5-|
E|-------------------------------3-3-3-3---3-3---3-3---3-3-3----|
                          KUALKIER DIA

e|--------------------------------------------------------------|
B|--------------------------------------------------------------|
G|---------7-----7-----8-------7--------------------------------|
D|-5-5-5-5---5-5---5-5---5-5-5-----------7-----7-----8--------7-|
A|-------------------------------5-5-5-5---5-5---5-5---5-5-5----|
E|--------------------------------------------------------------|  X3
                          KUALKIER DIA


    B5      B     G5     G     D5     D    A5     A
e|----------2------------3------------5-----------5-----------------|
B|----------4------------3------------7-----------5-----------------|
G|--4-4---4-4------------4----7-7---7-7-----------6-----------------|
D|--4-4---4-4----5-5---5-5----7-7---7-7----7-7--7-7-----------------|
A|--2-2---2-2----5-5---5-5----5-5---5-7----7-7--7-7-----------------|
E|--2-2---2-2----3-3---3-3----5-5---5-5----5-5--5-5-----------------| X4
    KUALKIER DIA                  KUALKIER DIA   .    TE PUEDEN JODER
                                                /|
                B                               |
TE LEVAMTAS DE CAMA         |                    |
                G           |                    |
SON LAS 2 DE LA TARDE       |                    |
          D                 |                    |
NO TIENES TRABAJO           |                    |
            A               |                    |
NI NADA QUE HACER           |                    |
                            PALM MUTE            |
            B               |                    |
SALUDAS AL DIA              |                    |
           G                |                    |
QUIZAS CON RESACA           |                    |
                  D         |                    |
Y EN EL BAR DE LA ESQUINA   |                    |
              A             |                    |
3 CORTAOS CON COÑAC         |                    |
                            /                    |
B                                                |
VAS POR LA CALLE                                 |
       G                                         |
UN DIA CUALQUIERA                                |
            D                                    |
LA CHUPA SOBRE EL OMBRO                          |
         A                                       |
MAS PERDIDO QUE EL COPON                         |
                                                 |
B                                                |
VAS POR LA CALLE                                 |
       G                                         |
UN DIA CUALQUIERA                                |
            D                                    |
MOSQUEADO CON TODOS                              |
            A                                    |
CAGANDOTE EN DIOS                                |
                                                 |
                                                |
NO SE DONDE VIVO   |                             |
NO SE QUE HORA ES  |(SE TOCA CON EL MISMO RITMO)_/
NO SE SI ES MAÑANA |                             |
O TODAVIA AYER     |                             |
                   /                             |
                                                |
NO SE DONDE VIVO       |                         |
SOLO SE QUE ESTOY      |                         |
HASTA LOS MISMOS HEVOS |_______(IDEM)____________/
ME CAGÜEN DIOS         |
                       /


B
KUALKIER DIA
G
KUALKIER DIA
D
KUALKIER DIA
A
KUALKIER DIA

B
KUALKIER DIA
G
KUALKIER DIA
D
KUALKIER DIA
A       D       A
¡¡TE PUEDEN JODER!!



        B              
EN TU BOLSILLO         |
        G              |
¡HAY QU JODER!         |
            D          |
TE QUEDA LO JUSTO      |
     A                 |
PARA COMER             |
                       |
                       PALM MUTE
         B             |
PASADO EL RATO         |
        G              |
DECIDES GASTAR         |
            D          |
LO POCO QUE TIENES     |
     A                 |
PARA PRIVAR            |
                       /

B
COMPRAS UNOS PORROS
        G
BEBES CLARETE
       D
TE PONES BORRACHO
             A
TE RIES DE LA GENTE

B
VAS POR LA CALLE
        G
UN DIA CUALQUIERA
             D
MOSQUEADO CON TODOS
           A
CAGANDOTE EN DIOS



NOS SE DONDE VIVO......
NOSE QUE...
NOSE....
O..

NOSE DONDE VIVO.....
SOLO SE.....
HASTA.....
ME....

KUALKIER DIA
KUALKIER...



<Y ASI HASTA EL FINAL DE ESTA PEACHO CANCION DE LOS PIPERRAK TOKADA POR BOIKOT>
<SI TENEIS ALGUNA DUDA O SUGERENCIA NO DUDEIS EN CONSULTARMELO: M_RADA87@HOTMAIL.COM>
		   
AcordesyTabs.com © 2008 Acordes y Tablaturas para guitarra. Tabs and Chords for guitar. Aviso Legal - Contacto
El uso de este sitio está sujeto a la aceptación de los términos y condiciones (25 usuarios online)