tablaturas, partituras y acordes para guitarra
Busca por banda/artista:
 
y/o título de la canción:
A B C D E F G H I J K L M N O P Q R S T U V W X Y Z 0 1 2 3 4 5 6 7 8 9 / Top 100 tabs
Categorías
Usuarios
usuario:
Darse de alta
password:
Artistas más visitados
Publicidad
TOP acordes y tablaturas de Attaque 77


Estás en: Inicio > Letra A > Acordes y tablaturas de Attaque 77 > Cual es el precio
Cual es el precio
de Attaque 77
Puntúa este acorde/tab:      
(0.5/5)
Reportar este acorde/tab
  Añadir a tus favoritos
  Imprimir
SOLO DE CUAL ES EL PRECIO
--------------------------------------------|
----------0--4--2---4-2-4-2-----------------|
-----1-2--------2---------------------------|
2-2--------------------------2-2-2----------|
--------------------------------------------|
--------------------------------------------|

-----------------------------------|
12-9---------10-9-10---------------|
-----9--X5-----------11-9----------|
-----------------------------------|
-----------------------------------|
-----------------------------------|

ESTO ES RASGUEANDO
4-4-4-4---------------2-2-2-2--------------------|
5-5-5-5-----7-7-7-7---3-3-3-3-----5-5-5-5--------|
------------8-8-8-8---------------6-6-6-6--------|
------------7-7-7-7---------------5-5-5-5--------|
-------------------------------------------------|
-------------------------------------------------|

------------7---^7---^-7---^7------------------------|
5-7-5--7/9----9----9-----9-----10/9---------10-9-----|
-------------------------------------9-11-9------9-X4|
-----------------------------------------------------|   
-----------------------------------------------------|  
-----------------------------------------------------|   

CHICOS PONGANSE LAS PILAS Y SAQUE LOS SOLOS DE 'BRIGADA ANTI DISTURBIOS'
Y 'CHICOS Y PERROS'
		   
AcordesyTabs.com © 2008 Acordes y Tablaturas para guitarra. Tabs and Chords for guitar. Aviso Legal - Contacto
El uso de este sitio está sujeto a la aceptación de los términos y condiciones (30 usuarios online)