tablaturas, partituras y acordes para guitarra
Busca por banda/artista:
 
y/o título de la canción:
A B C D E F G H I J K L M N O P Q R S T U V W X Y Z 0 1 2 3 4 5 6 7 8 9 / Top 100 tabs
Categorías
Usuarios
usuario:
Darse de alta
password:
Artistas más visitados
Publicidad
TOP acordes y tablaturas de Rondalla del Amor de Saltillo


Cuando estemos viejos
de Rondalla del Amor de Saltillo
Puntúa este acorde/tab:      
(0.2/5)
Reportar este acorde/tab
  Añadir a tus favoritos
  Imprimir
   Esta es la version del disco...


  Dm                      A7                    Dm                                    
E--------------------------------------------------------------------------
A--------------------------------------------------------------------------
D--------------------------------------------------------------------------
G--------------------------------------------------------------------------
B-3-3---5-6---3-3--5-6---2-2---3-5---2-2--3-5---3-3---5-6---3-3---5-6---6--
e-1---1-3-5---1--1-3-5---0---0-1-3---0--0-1-3---1---1-3-5---1---1-3-5---5--


                    Dm                                   Gm  
   Cuando estemos viejos y se nos achique el paisaje en los ojos,
                 C7                                                   F    A7    
y el sol del invierno se nos ponga flojo y nos cachetee la cara el espejo,
                 Dm                                      Gm     
cuando estemos viejos y tiembren mis manos al tomar las tuyas,
                 C7                                                               F   
y nos falte el llanto la risa y la bulla de estos tres diablillos que ya estaran lejos.



                    D7                    Gm
   Cuando estemos viejos, cuando estemos solos,
                 C7               F
cuando no halla nada y nos duela todo,
              D7              Gm 
cuando solo exista la casa vacia,
              C7                      F    A7        
y anden en silencio tu saombra y la mia...



                  Dm                  Gm   
   Nos querremos tanto que nuestro cariño
              C7                      F    A7 
llenara la ausencia de esos tres diablillo-os...



Dm                      A7                    Dm                                    
E--------------------------------------------------------------------------
A--------------------------------------------------------------------------
D--------------------------------------------------------------------------
G--------------------------------------------------------------------------
B-3-3---5-6---3-3--5-6---2-2---3-5---2-2--3-5---3-3---5-6---3-3---5-6---6--
e-1---1-3-5---1--1-3-5---0---0-1-3---0--0-1-3---1---1-3-5---1---1-3-5---5--


  

                   Dm                                Gm        
   Cuando estemos viejos yo te lo prometo compañera mia,
               C7                                                       F  
seran nuestro años plenos de dulzura seran nuestras horas llenas de poesia,
           D7                    Gm                       C7                    F       
andaremos juntos, viejitos, inquietos... las cuatros estaciones de un mundo de nietos,
            D7                   Gm                 C7                    F       A7        
y veras mi vida que miente el espejo, pues seremos novios cuando estemos viejos...



                 Dm Gm  A7*                   Dm
   Pues seremos no--vio-os... cuando estemos viejos...


  Dm          A7                    Dm                                              
E-------------------------------------------------------------
A-------------------------------------------------------------
D-------------------------------------------------------------
G-------------------------------------------------------------
B-3-3---5-6---2-2--3-5---2-2--3-5---3-3--5-6---3-3--5-6---6---
e-1---1-3-5---0--0-1-3---0--0-1-3---1--1-3-5---1--1-3-5---5---


   

  El tono de A7 marcado con * significa que se escucha mejor cuando lo tocas con cejilla (a escala);
si tienes dudas, sugerencias, comentarios o peticiones, mandame un correo...
		   
AcordesyTabs.com © 2008 Acordes y Tablaturas para guitarra. Tabs and Chords for guitar. Aviso Legal - Contacto
El uso de este sitio está sujeto a la aceptación de los términos y condiciones (14 usuarios online)