tablaturas, partituras y acordes para guitarra
Busca por banda/artista:
 
y/o título de la canción:
A B C D E F G H I J K L M N O P Q R S T U V W X Y Z 0 1 2 3 4 5 6 7 8 9 / Top 100 tabs
Categorías
Usuarios
usuario:
Darse de alta
password:
Artistas más visitados
Publicidad
TOP acordes y tablaturas de Jaguares


Estás en: Inicio > Letra J > Acordes y tablaturas de Jaguares > Cuando La Sangre Galopa
Cuando La Sangre Galopa
de Jaguares
Puntúa este acorde/tab:      
(0.2/5)
Reportar este acorde/tab
  Añadir a tus favoritos
  Imprimir
Esta cancion va dedicada a mi Ciberchava Aide aguilar(Frida) 
y a mi cibercuatacha Yasmin Rodriguez (chaparrita)


***intro***
             este riff va con fat distorcion
E----0----------------------------------------  Este riff se repite 
A-----------0h2--5----------------------------  en toda la cancion
D-------2-----------2-------------------------  
G---------------------------------------------
B---------------------------------------------
e---------------------------------------------
                                                                         

este tono va cuando dice 'y te vas'

E-----5-----------
A-----7-----------
D-----7-----------
G-----------------
B-----------------
e-----------------

despues del tono la intro tiene una variacion que se toca solo una vez, 
luego se repite la intro normal

E--0----------------------
A-------------------------
D----2--------------------
G-------------------------
B----------------7-----7--
e--------7p7--5-----5-----


tambien hay otra variacion en la intro que va mas o menos asi
    
E--0------------------------------------------
A---------------------------------------------  oye la cancion para 
D----2--------------------------------9---9-7/9-   para que veas 
G---------9p11-----9p11---/11--9---7--9-7---7/9-   donde va
B--------------7------------------------------
e--------------7------------------------------

despues sigue el verso que va asi 'y te miras'

E----------------------------------------------
A----7-------7---------------------------------
D----------------------------------------------
G-------9-------9------------------------------
B---------9--------7---------------------------
e----------------------------------------------

y otro que va asi, no me acuerdo donde pero por ahy va, 
creo qeu despues del segundo verso que dice y 'te miras', 
despues del riff de arriba 

E----------------------------------------------
A----------------------------------------------
D----------------------------------------------
G----------------------------------------------
B----16~-------14~--/12---5-5------------------
e--------17~-----------------------------------

despues van unos acordes que se oyen asi,repitelo varias veces

E----------------------------------------------
A--7-7---7-7----10-10----3--3---2--2--3-5-7-7--
D--9-9---9-9----12-12----5--5---4--4--5-7-9-9--
G----------------------------------------------
B----------------------------------------------
e----------------------------------------------


este es el solo,suena parecido,lleva fat distorcion y wah

E-------------------------------------------
A----------------------9--------------------
D--------------9---------7-9----------------
G---9p11--9-9-----7~----------7-9-----9/7~--
B---------------------------------5---------
e-------------------------------------------

E---------------------------------------------
A----14---------------------------------------
D-------12-14---------------------------------
G-------------12-14-12-14------9/7~-----------
B-------------------------12~-----------------
e---------------------------------------------

/=slide/deslizar
~=let ring/dejar que suene
p=pull/jalar la cuerda en el traste indicado para que suene 
como el traste despues de la 'p'

Bueno colegas rockeros, espero tengan una idea de como va 
la rola, Mantengamos vivo este ritual del jaguar.
		   
AcordesyTabs.com © 2008 Acordes y Tablaturas para guitarra. Tabs and Chords for guitar. Aviso Legal - Contacto
El uso de este sitio está sujeto a la aceptación de los términos y condiciones (37 usuarios online)