tablaturas, partituras y acordes para guitarra
Busca por banda/artista:
 
y/o título de la canción:
A B C D E F G H I J K L M N O P Q R S T U V W X Y Z 0 1 2 3 4 5 6 7 8 9 / Top 100 tabs
Categorías
Usuarios
usuario:
Darse de alta
password:
Artistas más visitados
Publicidad
TOP acordes y tablaturas de Jaguares


Estás en: Inicio > Letra J > Acordes y tablaturas de Jaguares > Cuando La Sangre Galopa
Cuando La Sangre Galopa
de Jaguares
Puntúa este acorde/tab:      
(0.4/5)
Reportar este acorde/tab
  Añadir a tus favoritos
  Imprimir
e--------------------------------|
B--------------------------------|
G--------------------------------|
D--------------------------------| X4
A---7-------5-7----7-------5-7---|
E-0-----5*7------0----5*7--------|



  cuando la sangre galopa     la tierra
e--------------------------------------|
B--------------------------------------|
G--------------------------------------|
D--------------------------------------| 
A-----7---------5-7--------7-------5-7-|
E---0------5*7---------0------5*7------|

ayuda a no parar
e--------------------------------------|
B--------------------------------------|
G--------------------------------------|
D--------------------------------------| 
A-----7---------5-7--------7-------5-7-|
E---0------5*7---------0------5*7------|

  las montañas protejen    ese curso 
e--------------------------------------|
B--------------------------------------|
G--------------------------------------|
D--------------------------------------| 
A-----7---------5-7--------7-------5-7-|
E---0------5*7---------0------5*7------|

            q no conoces
e--------------------------------------|
B--------------------------------------|
G--------------------------------------|
D--------------------------------------| 
A-----7---------5-7--------7-------5-7-|
E---0------5*7---------0------5*7------|


A          A
y te vaaaaasssss




e--------------------------------------|
B--------------------------------------|
G-------13^15^13-11-13~----------------|
D--------------------------------------| 
A-----7-------------------7-------5-7--|
E---0-------------------0-----5*7------|

  cuando la sangre galopa  es imposible
e--------------------------------------|
B--------------------------------------|
G--------------------------------------|
D--------------------------------------| 
A-----7---------5-7--------7-------5-7-|
E---0------5*7---------0------5*7------|

             mirar atras  
e--------------------------------------|
B--------------------------------------|
G--------------------------------------|
D--------------------------------------| 
A-----7---------5-7--------7-------5-7-|
E---0------5*7---------0------5*7------|

 como una flecha cruzando   el desafio
e--------------------------------------|
B--------------------------------------|
G--------------------------------------|
D--------------------------------------| 
A-----7---------5-7--------7-------5-7-|
E---0------5*7---------0------5*7------|

           de tus temores
e--------------------------------------|
B--------------------------------------|
G--------------------------------------|
D--------------------------------------| 
A-----7---------5-7--------7-------5-7-|
E---0------5*7---------0------5*7------|

A       A
y te vasssssssss


e--------------------------------------|
B-------------14-12*14*1210-10*12*10--|
G-------13^15--------------------------|
D--------------------------------------| 
A-----7--------------------------------|
E---0----------------------------------|


e----------------12-12-12-12-12--------|
B----------------12-12-12-12-12--------|
G-13/1513-13~---13-13-13-13-13--------|
D--------------------------------------| 
A--------------------------------------|
E--------------------------------------|



D#m                C#m      
cuando la sangre galopa
            E              D#m
el aire te avienta la inmensidad
      E        D#m
y te miiiirrrraaasss
     E      D#m
por deeeeentro
     E          D#m
y miiiiiiiirrrraasssss
      E      D#m
el univeeeeerso



SOLO
e----------------------------------|
B----------------------------------|
G----------------------------------|
D-12----11---14-14--9---7--9-9--5~-| 
A-10-----9---12-12--7---5--7-7--3~-|
E----------------------------------|

e----------------------------------|
B----------------------------------|
G----------------------------------|
D-12----11---14-14--9---7--9-9--5~-| 
A-10-----9---12-12--7---5--7-7--3~-|
E----------------------------------|

e----------------------------------|
B----------------------------------|
G----------------------------------|
D-12----11---14-14--9---7--9-9--5~-| 
A-10-----9---12-12--7---5--7-7--3~-|
E----------------------------------|

e----------------------------------|
B----------------------------------|
G----------------------------------|
D-12----11---14-14--9---7--9-9--5~-| 
A-10-----9---12-12--7---5--7-7--3~-|
E----------------------------------|


e--------------------------------------|
B--------------------------------------|
G--------------------------------------|
D--------------------------------------| X2
A-----7---------5-7--------7-------5-7-|
E---0------5*7---------0------5*7------|


     cuando la sangre galopa     los 
e--------------------------------------|
B--------------------------------------|
G--------------------------------------|
D--------------------------------------| 
A-----7---------5-7--------7-------5-7-|
E---0------5*7---------0------5*7------|

ancestros se vuelven Dioses
e--------------------------------------|
B--------------------------------------|
G--------------------------------------|
D--------------------------------------| 
A-----7---------5-7--------7-------5-7-|
E---0------5*7---------0------5*7------|

A        A
y te vaaaaaassssss


e--------------------------------------|
B--------------------------------------|
G-------13^15^13-11-13~----------------|
D--------------------------------------| 
A-----7-------------------7-------5-7--|
E---0-------------------0-----5*7------|

A     A
y te vaaaaaaasssss



 haciendo fuerte
e--------------------------------------|
B-------------14-12*14*1210-10*12*10--|
G-------13^15--------------------------|
D--------------------------------------| 
A-----7--------------------------------|
E---0----------------------------------|


e----------------12-12-12-12-12--------|
B----------------12-12-12-12-12--------|
G-13/1513-13~---13-13-13-13-13--------|
D--------------------------------------| 
A--------------------------------------|
E--------------------------------------|




D#m                C#m      
cuando la sangre galopa
            E              D#m
el aire te avienta la inmensidad
      E        D#m
y te miiiirrrraaasss
     E      D#m
por deeeeentro
     E          D#m
y miiiiiiiirrrraasssss
      E      D#m
el univeeeeerso

      E        D#m
y te miiiirrrraaasss
     E      D#m
por deeeeentro
     E          D#m
y miiiiiiiirrrraasssss
      E      D#m
el univeeeeerso


D#m    C#m
e-11~------------16--9~--------7~------|
B--------------------------------------|
G--------------------------------------|
D--------------------------------------| 
A--------------------------------------|
E--------------------------------------|
D#m    C#m
e-11~------------16--9~--------7~------|
B--------------------------------------|
G--------------------------------------|
D--------------------------------------| 
A--------------------------------------|
E--------------------------------------|
D#m    C#m
e-11~------------16--9~--------7~------|
B--------------------------------------|
G--------------------------------------|
D--------------------------------------| 
A--------------------------------------|
E--------------------------------------|
D#m    C#m
e-11~------------16--9~--------7~------|
B--------------------------------------|
G--------------------------------------|
D--------------------------------------| 
A--------------------------------------|
E--------------------------------------|


e--------------------------------------|
B--------------------------------------|
G--------------------------------------|
D--------------------------------------| 
A-----7---------5-7--------7-------5-7-|
E---0------5*7---------0------5*7------|

e----------------------------------------|
B----------------------------------------|
G----------------------------------------|
D----------------------------------------| 
A-----7---------5-7--------7-------5-7---|
E---0------5*7---------0------5*7------0~|



bueno, eso es todo, solo les quedo a deber 
el solo q esta pok madre... echenle ganas

si van a usar este archivo para otro lugar
avisenme, no sean ****gandallas***

comentarios, dudas, anecdotas, chistes
a mi mail jcd_007@hotmail.com
		   
AcordesyTabs.com © 2008 Acordes y Tablaturas para guitarra. Tabs and Chords for guitar. Aviso Legal - Contacto
El uso de este sitio está sujeto a la aceptación de los términos y condiciones (18 usuarios online)