tablaturas, partituras y acordes para guitarra
Busca por banda/artista:
 
y/o título de la canción:
A B C D E F G H I J K L M N O P Q R S T U V W X Y Z 0 1 2 3 4 5 6 7 8 9 / Top 100 tabs
Categorías
Usuarios
usuario:
Darse de alta
password:
Artistas más visitados
Publicidad
TOP acordes y tablaturas de Attaque77


Estás en: Inicio > Letra A > Acordes y tablaturas de Attaque77 > Cuanta cerveza
Cuanta cerveza
de Attaque77
Puntúa este acorde/tab:      
(0.5/5)
Reportar este acorde/tab
  Añadir a tus favoritos
  Imprimir
Intro

G------------------------------------
D------------------------------------
A-7(x8)-------7(x8)------------------
E-------5(x8)-------5(x8)--7(x7)-----

G------------------------------------
D------------------------------------
A-7(x8)------------------------------
E-------5(x8)--9(x8)---7(x8)---------

Versos

'Hey hombre que estas.....'

G-------------------------------------
D-------------------------------------
A-7(x8)-7-----------------------------
E---------7-5(x6)-7(x6)---------------(x2)

'Mira como la noche se pasa.......'

G--------------------------------------
D--------------------------------------
A--------5-7(x6)-5h7-5-----------------
E-5(x6)-7--------------7-5(x6)---------(x3)

'alguien mas...'

G--------------------------------------
D--------------------------------------
A--------------------------------------
E----------9(x5)-7(x6)-----------------

Estribillo

'Ya deja todo.....'

G--------------------------------------
D--------------------------------------
A-7(x5)--------------------------------
E------9(x5)--5(x5)--7(x5)-------------(x2)

Versos (como arriba)

'Chicos paren ya....'

Estribillo


Solo de guitarra

G-----------------------------------------------
D-----------------------------------------------
A-7(x5)-5---------------------------------------
E---------7-5(x5)--9(x5)-9-7-9-7(x5)------------(x2)

Versos

G--------------------------------------
D--------------------------------------
A--------------------------------------
E-------7-8-9-9------------------------

'No hay un mundo feliz'

G--------------------------------------
D--------------------------------------
A---------5-7(x5)-9-7------------------
E-5(x5)-7-------------9-7-7-7-8-9-9----

'Miren a esa reina...'

G-------------------------------------
D-------------------------------------
A-7(x8)-7-----------------------------
E---------7-5(x6)-7(x6)---------------(x2)

'Nena no simules.....'

G--------------------------------------
D--------------------------------------
A--------5-7(x6)-5h7-5-----------------
E-5(x6)-7--------------7-5(x6)---------(x3)

'con la almohada.....'

G--------------------------------------
D--------------------------------------
A--------------------------------------
E----------9(x5)-7(x6)-----------------

Estribillo

En la ultima parte que dice 'vamos' y mientras 
se hace un solito de guitarra hace esto:

G--------------------------------------
D--------------------------------------
A--7(x8)-------------------------------
E--------7-5(x8)-----------------------


Final

G--------------------------------------
D--------------------------------------
A--7-----------------------------------
E----9-7-4-0---------------------------
		   
AcordesyTabs.com © 2008 Acordes y Tablaturas para guitarra. Tabs and Chords for guitar. Aviso Legal - Contacto
El uso de este sitio está sujeto a la aceptación de los términos y condiciones (34 usuarios online)