tablaturas, partituras y acordes para guitarra
Busca por banda/artista:
 
y/o título de la canción:
A B C D E F G H I J K L M N O P Q R S T U V W X Y Z 0 1 2 3 4 5 6 7 8 9 / Top 100 tabs
Categorías
Usuarios
usuario:
Darse de alta
password:
Artistas más visitados
Publicidad
TOP acordes y tablaturas de Attaque 77


Estás en: Inicio > Letra A > Acordes y tablaturas de Attaque 77 > Cuanta Cerveza
Cuanta Cerveza
de Attaque 77
Puntúa este acorde/tab:      
(0.6/5)
Reportar este acorde/tab
  Añadir a tus favoritos
  Imprimir
Este es el punteo de la Intro de Cuanta Cerveza, la
versión de Trapos

Intro : Solo Guitarra
|------------------------------------|
|-9-x-x-9-x-x-12-x-9-x-x-10-x-x-12-x-|
|------------------------------------|
|------------------------------------|
|------------------------------------|
|------------------------------------|

|--------------------------------------|
|-10-x-x-10-x-x-12-x-10-x-x-9-x-x-12-x-|
|--------------------------------------|
|--------------------------------------|
|--------------------------------------|
|--------------------------------------|

|------------------------------------|
|-9-x-x-9-x-x-12-x-9-x-x-10-x-x-12-x-|
|------------------------------------|
|------------------------------------|
|------------------------------------|
|------------------------------------|

|--------------------------------------------|
|-10-x-x-10-x-x-10-12-x-10-10-10-10-10-10-10-|
|--------------------------------------------|
|--------------------------------------------|
|--------------------------------------------|
|--------------------------------------------|

Aquí empieza la batería:
|-----------------------------------|
|-9-x-x-12-x-9-x-x-9-x-x-12-x-9-x-x-|
|-----------------------------------|
|-----------------------------------|
|-----------------------------------|
|-----------------------------------|

|---------------------------------------|
|-10-x-x-12-x-10-x-x-10-x-x-12-x-10-x-x-|
|---------------------------------------|
|---------------------------------------|
|---------------------------------------|
|---------------------------------------|

|-----------------------------------|
|-9-x-x-12-x-9-x-x-9-x-x-12-x-9-x-x-|
|-----------------------------------|
|-----------------------------------|
|-----------------------------------|
|-----------------------------------|

|-----------------------------------------|
|-10-x-x-12-x-10-x-x-12-12-12-12-12-12-12-|
|-----------------------------------------|
|-----------------------------------------|
|-----------------------------------------|
|-----------------------------------------|

|-----------------------------------|
|-9-x-x-12-x-9-x-x-9-x-x-12-x-9-x-x-|
|-----------------------------------|
|-----------------------------------|
|-----------------------------------|
|-----------------------------------|

|---------------------------------------|
|-10-x-x-12-x-10-x-x-10-x-x-12-x-10-x-x-|
|---------------------------------------|
|---------------------------------------|
|---------------------------------------|
|---------------------------------------|

|-----------------------------------|
|-9-x-x-12-x-9-x-x-9-x-x-12-x-9-x-x-|
|-----------------------------------|
|-----------------------------------|
|-----------------------------------|
|-----------------------------------|

|-------------------------------------------------|
|-12-12-12-12-12-12-12-12-------------------------|
|-------------------------------------------------|
|-------------------------------------------------|
|-------------------------------------------------|
|-------------------------------------------------|

Aguante Attaque!!
		   
AcordesyTabs.com © 2008 Acordes y Tablaturas para guitarra. Tabs and Chords for guitar. Aviso Legal - Contacto
El uso de este sitio está sujeto a la aceptación de los términos y condiciones (26 usuarios online)