tablaturas, partituras y acordes para guitarra
Busca por banda/artista:
 
y/o título de la canción:
A B C D E F G H I J K L M N O P Q R S T U V W X Y Z 0 1 2 3 4 5 6 7 8 9 / Top 100 tabs
Categorías
Usuarios
usuario:
Darse de alta
password:
Artistas más visitados
Publicidad
TOP acordes y tablaturas de Attaque 77


Estás en: Inicio > Letra A > Acordes y tablaturas de Attaque 77 > Cuanta Cerveza
Cuanta Cerveza
de Attaque 77
Puntúa este acorde/tab:      
(0.6/5)
Reportar este acorde/tab
  Añadir a tus favoritos
  Imprimir
Cuanta Cerveza (Version de trapos que está mas completa)

[intro]
e--------------------------------------|
B-9-9-9-10-9-9-12--10-9-9-9-10-9-9-12--|
G-9-9-9-9--9-9-9---9--9-9-9-9--9-9-9---|x2
D--------------------------------------|
E A C#m B> G|--4-4-4-2-2-2-1


[solo]
e--------------------------------------------------------------------------------------
B----------------------------7---------------------7-9-10----------------7--10-10-10---
G-------------6-9-9-6-9-6-9----9-8-6----------9--9---------9h79h79h7b8b7----9--9--9----
D--------6-7-------------------------9-7-6---------------------------------------------
A-7--7-9-----------------------------------9-------------------------------------------
E--------------------------------------------------------------------------------------



  E                    E B A
Hey, hombre que estás
 A           B
trabajando siempre sin cesar
 E              E B A
deja de accionar
 A              B
esa maquinaria infernal.

 A             E              A             E
Mira como la noche se pasa y tu mujer está sola en tu casa.
 A            E
si no te apresuras en llegar,
F#m                B
alguien más va a ocupar tu lugar.

                 E      C#m
Ya deja todo y vamos, vamos
A              B
mira cuanta cerveza que hay alli
  E      C#m
vamos, vamos
A              B                   E
mira cuanta cerveza que hay alli


E                  E B A
  Chicos, paren ya,
               B
que no nacimos para estudiar
E                  E B A
  Siempre trabajar,
            B
date tiempo para liberar

A          E
esas fantasías de la mente
A             E                 A
de cerveza y mujeres calientes
              E
sé, que las podremos encontrar
F#m               B
en algún lugar de la ciudad.

                 E      C#m
Ya deja todo y vamos, vamos
A              B
mira cuanta cerveza que hay alli
  E      C#m
vamos, vamos
A              B                  E
mira cuanta cerveza que hay alli
vamos!

[Solo]

B C  C#m               A
       No hay un mundo feliz
E                 B
pero igual lo iremos a buscar
B C  C#m           A          E              B
       si mi copa está vacía alguien la va a llenar.

E               E  B  A
Miren esa nena
A       B                                      e-12----12----12------------
como provoca con sus caderas                   B----12----12----12--9--12--
E                             E B A            G---------------------------
si los chicos pasan a su lado                  D---------------------------
A            B
y le dicen algo, ella se queja

A             E
Nena, no simules mas que
A                    E
tenés pudor y te controlás
A              E
si yo sé que cuando cae la noche
C#m                 B
con la almohada te consolás.

                 E      C#m
Ya deja todo y vamos, vamos
A              B
mira cuanta cerveza que hay aqui
  E      C#m
vamos, vamos
A              B
mira cuanta cerveza que hay aqui

                 E      C#m
Ya deja todo y vamos, vamos
A              B
mira cuanta cerveza que hay aqui
  E      C#m
vamos, vamos
A              B                 E
mira cuanta cerveza que hay aqui
vamos!

[final]
e--------------------------------------------------------------
B-9-9-9-12-x-9--9-9-9-9-12-9--9-10-10-10-12-10--12-12-12-7--9--
G-9-9-9--9-x-9--9-9-9-9--9-9--9--9--9--9--9--9--11-11-11-8--9--
D--------------------------------------------------------------

Nada para destacar de este tab --- ahi se ven loco
		   
AcordesyTabs.com © 2008 Acordes y Tablaturas para guitarra. Tabs and Chords for guitar. Aviso Legal - Contacto
El uso de este sitio está sujeto a la aceptación de los términos y condiciones (29 usuarios online)