tablaturas, partituras y acordes para guitarra
Busca por banda/artista:
 
y/o título de la canción:
A B C D E F G H I J K L M N O P Q R S T U V W X Y Z 0 1 2 3 4 5 6 7 8 9 / Top 100 tabs
Categorías
Usuarios
usuario:
Darse de alta
password:
Artistas más visitados
Publicidad
TOP acordes y tablaturas de Marcos Witt


Estás en: Inicio > Letra M > Acordes y tablaturas de Marcos Witt > Cuan bello es el Señor
Cuan bello es el Señor
de Marcos Witt
Puntúa este acorde/tab:      
(0.8/5)
Reportar este acorde/tab
  Añadir a tus favoritos
  Imprimir
NOTA: Esta canción esta declarada,
ideal para usarla en adoraciones, oraciones
o introducciones a esta cancion....

E|------------------------------------||
B|-5/8-8-8--6-5-8-7v------------------||
G|------------------------------------||
D|------------------------------------||
A|------------------------------------||
E|------------------------------------||

E|------------------------------------||
B|-3/6-6-6-5-3--6-5v------------------||
G|------------------------------------||
D|------------------------------------||
A|------------------------------------||
E|------------------------------------||

E|------------------------------------||
B|-5/8-8-8--6-5-8-7v------------------||
G|------------------------------------||
D|------------------------------------||
A|------------------------------------||
E|------------------------------------||

E|------------------------------------||
B|-----5------------------------------||
G|-5-7----7-5--4-5v-------------------||
D|------------------------------------||
A|------------------------------------||
E|------------------------------------||
Bis
                 Coro
E|-8-8-8-7-7----5v--------------------||
B|------------8-----------------------||
G|------------------------------------||
D|------------------------------------||
A|------------------------------------||
E|------------------------------------||

E|-7-7-7-8-7--5-----------------------||
B|--------------8v--------------------||
G|------------------------------------||
D|------------------------------------||
A|------------------------------------||
E|------------------------------------||

E|-5-5-5-7-5----5v--------------------||
B|------------8-----------------------||
G|------------------------------------||
D|------------------------------------||
A|------------------------------------||
E|------------------------------------||

E|-------5----------------------------||
B|-8-8-8---8-6-8v---------------------||
G|------------------------------------||
D|------------------------------------||
A|------------------------------------||
E|------------------------------------||

E|------------------------------------||
B|-----5------------------------------||
G|-5-7----7-5--4-5v-------------------||
D|------------------------------------||
A|------------------------------------||
E|------------------------------------||
		   
AcordesyTabs.com © 2008 Acordes y Tablaturas para guitarra. Tabs and Chords for guitar. Aviso Legal - Contacto
El uso de este sitio está sujeto a la aceptación de los términos y condiciones (24 usuarios online)