tablaturas, partituras y acordes para guitarra
Busca por banda/artista:
 
y/o título de la canción:
A B C D E F G H I J K L M N O P Q R S T U V W X Y Z 0 1 2 3 4 5 6 7 8 9 / Top 100 tabs
Categorías
Usuarios
usuario:
Darse de alta
password:
Artistas más visitados
Publicidad
TOP acordes y tablaturas de Caifanes


Estás en: Inicio > Letra C > Acordes y tablaturas de Caifanes > Cuéntame tu Vida
Cuéntame tu Vida
de Caifanes
Puntúa este acorde/tab:      
(0.6/5)
Reportar este acorde/tab
  Añadir a tus favoritos
  Imprimir
cancion tocada por jaguares

guitarra 1 (harris y saul)
intro
G----------6-------------6------------6--------10--10--8---7 
D-8---9---------8----9---------8----9------8----


guitarra 2 (vampiro)
intro 2
B---8*---6*----4*-----3*---------7/8--6--7*-----9/10----8---9

c#m
E----4-----             E-----9----     
B----5-----      o      B-----9----
G----6-----             G-----9----
D----6-----             
 

A
E---5------             E---12------
B---5-----      o       B---14------
G---6------             G---14------
D---7------

c#m                          A                      
desde un tiempo para aca veo solo cristales

c#m                         A       
con olor a alcohol que me hacen llorar

c#m                         A
que me hacen tumbar al suelo y no parar

c#m                     A
cuanto tiempo va a pasar para olvidar

se repite el intro y el intro 2

c#m                      A
no se cuanto tiempo llevo hundido aqui

c#m                 A
ya no se ni como usar los pies

c#m                           A
todo el cuerpo se me entume (aspira dos veces) inahalar

coro
A#
cuentame tu vida
cuentame la toda

C
dime si estoy vivo
si todavia respiro

(versos c#m y A)
veo perros que se arrastran a ladrar
me acuesto en el suelo y me dan ganas de morder
esa angustia de tener seco el corazon
cuanto tiempo va a pasar para olvidar

coro

intro

entre el solo
lleva estos acordes

    A#          C
D---3---      D---5----
A---1---      A---3----

solo

E---------------------------------------------
B---3---5----3*-----------3----5---3*---------
G-----------------3----5----------------------

E------------------------5-----3-------------------------
B-3----1---------------------------5--6--4---5--3---4---2
G-------3--4---3*----------------------------------------
D--------------------------------------------------------

E---12/14--11---12*------14/15----13---12*---------
B--------------------------------------------------
G--------------------------------------------------
D--------------------------------------------------

E----------------------------------12------10------
B--------10---11---10---13--10--------------------  <- 5 veces
G----10-------------------------------------------
D--------------------------------------------------

E---12-----12----12-
B---11-----11----11
G---10-----10----10

coro

cuando empieza la ultima parte que canta

 cuentaaaameeeeeeee y varias veces eso lleva los bajeos del solo A#yC

ultimo solo
los mismos acordes del coro

B---3--4--3----4--3--4----6*- < 2 veces

B--7/8---6-7*---5-6---4--3* <-- 2 veces

y se vuelve a repetir el ultimo solo

intro
----------------------------------------------------------------
Roge Inzunza
oigan el disco para que se guien mas

dudas, cometarios,escriban a
royinzunza@lmm.megared.net.mx
		   
AcordesyTabs.com © 2008 Acordes y Tablaturas para guitarra. Tabs and Chords for guitar. Aviso Legal - Contacto
El uso de este sitio está sujeto a la aceptación de los términos y condiciones (10 usuarios online)