tablaturas, partituras y acordes para guitarra
Busca por banda/artista:
 
y/o título de la canción:
A B C D E F G H I J K L M N O P Q R S T U V W X Y Z 0 1 2 3 4 5 6 7 8 9 / Top 100 tabs
Categorías
Usuarios
usuario:
Darse de alta
password:
Artistas más visitados
Publicidad
TOP acordes y tablaturas de Dave Matthews Band


34 3
de Dave Matthews Band
Puntúa este acorde/tab:      
(0.5/5)
Reportar este acorde/tab
  Añadir a tus favoritos
  Imprimir
"#34"
by Dave Matthews Band
off the album Under The Table And Dreaming

tabbed by Joshua Kirsch
e-mail me for any questions, comments, or corrections:
joshua@hhhworld.com

note: the beat in this song gets tricky towards the end.  if you have trouble, c
numbers above each tab line instead of the given time signatures.  keep in mind 
or plus sign has the same duration.  (ex: 1 + + 2 + +  equals  1 + 2 + 3 + ) 


 time signature = 9/8
________________________________________________________________________________
VERSE                                                                           
                                                                                
     1  +  +  2  +  +  3  +  +   1  +  +  2  +  +  3  +  +   1  +  +  2  +  +  3
                                                                                
 e ||---------------------------|---------------------------|-------------------
 B ||---------------------------|---------------------------|-------------------
 G ||---------------11----6-----|------7--6-----------------|-------------------
 D ||------9-----9-----4--------|---7--------4-----7--------|-------------------
 A ||---7-----7-----------------|5--------------------5-----|7--------7--------9
 E ||5--------------------------|---------------------------|-------------------
                                                                                

                                                                                
                                                                                
    1  +  +  2  +  +  3  +  +   1  +  +  2  +  +  3  +  +   1  +  +  2  +  +  3 
                                                                                
 e |---------------------------|---------------------------|--------------------
 B |---------------------------|---------------------------|--------------------
 G |---------------11----6-----|------7--6-----------------|--------------------
 D |------9-----9-----4--------|---7--------4-----7--------|--------------------
 A |---7-----7-----------------|5--------------------5-----|7--------7--------9-
 E |5--------------------------|---------------------------|--------------------
                                                                                
                                                                                
________________________________________________________________________________
INTERLUDE                                                                       
                                                                                
    1  +  +  2  +  +  3  +  +   1  +  +  2  +  +  3  +  +   1  +  +  2  +  +  3 
                                                                                
 e |---------------------------|---------------------------|--------------------
 B |---------------------------|---------------------------|--------------------
 G |---------------------------|---------------------------|--------------------
 D |------0--------------------|------0--------------------|--------------------
 A |---5-----------------------|---5-----------------------|7--------7--------9-
 E |5--------------------------|3--------------------------|--------------------
                                                                                

________________________________________________________________________________
VERSE                                                                           
                                                                                
    1  +  +  2  +  +  3  +  +   1  +  +  2  +  +  3  +  +   1  +  +  2  +  +  3 
                                                                                
 e |---------------------------|---------------------------|--------------------
 B |---------------------------|---------------------------|--------------------
 G |---------------11----6-----|------7--6-----------------|--------------------
 D |------9-----9-----4--------|---7--------4-----7--------|--------------------
 A |---7-----7-----------------|5--------------------5-----|7--------7--------9-
 E |5--------------------------|---------------------------|--------------------
                                                                                

                                                                                
                                                                                
    1  +  +  2  +  +  3  +  +   1  +  +  2  +  +  3  +  +   1  +  +  2  +  +  3 
                                                                                
 e |---------------------------|---------------------------|--------------------
 B |---------------------------|---------------------------|--------------------
 G |---------------11----6-----|------7--6-----------------|--------------------
 D |------9-----9-----4--------|---7--------4-----7--------|--------------------
 A |---7-----7-----------------|5--------------------5-----|7--------7--------9-
 E |5--------------------------|---------------------------|--------------------
                                                                                
                                                                                
________________________________________________________________________________
INTERLUDE                                                                       
                                                                                
    1  +  +  2  +  +  3  +  +   1  +  +  2  +  +  3  +  +   1  +  +  2  +  +  3 
                                                                                
 e |---------------------------|---------------------------|--------------------
 B |---------------------------|-----(7)-------------------|--------------------
 G |---------------------------|---------------------------|--------------------
 D |------0--------------------|------0--------------------|--------------------
 A |---5-----------------------|---5-----------------------|7--------7--------9-
 E |5--------------------------|3--------------------------|--------------------
                                                                                

________________________________________________________________________________
VERSE                                                                           
                                                                                
    1  +  +  2  +  +  3  +  +   1  +  +  2  +  +  3  +  +   1  +  +  2  +  +  3 
                                                                                
 e |---------------------------|---------------------------|--------------------
 B |---------------------------|---------------------------|--------------------
 G |---------------11----6-----|------7--6-----------------|--------------------
 D |------9-----9-----4--------|---7--------4-----7--------|--------------------
 A |---7-----7-----------------|5--------------------5-----|7--------7--------9-
 E |5--------------------------|---------------------------|--------------------
                                                                                

                                                                                
                                                                                
    1  +  +  2  +  +  3  +  +   1  +  +  2  +  +  3  +  +   1  +  +  2  +  +  3 
                                                                                
 e |---------------------------|---------------------------|--------------------
 B |---------------------------|---------------------------|--------------------
 G |---------------11----6-----|------7--6-----------------|--------------------
 D |------9-----9-----4--------|---7--------4-----7--------|--------------------
 A |---7-----7-----------------|5--------------------5-----|7--------7--------9-
 E |5--------------------------|---------------------------|--------------------
                                                                                
                                                                                
________________________________________________________________________________
INTERLUDE                                                                       
                                                                                
    1  +  +  2  +  +  3  +  +   1  +  +  2  +  +  3  +  +   1  +  +  2  +  +  3 
                                                                                
 e |---------------------------|---------------------------|--------------------
 B |---------------------------|-----(7)-------------------|--------------------
 G |---------------------------|---------------------------|--------------------
 D |------0--------------------|------0--------------------|--------------------
 A |---5-----------------------|---5-----------------------|7--------7--------9-
 E |5--------------------------|3--------------------------|--------------------
                                                                                

________________________________________________________________________________
VERSE                                                                           
                                                                                
    1  +  +  2  +  +  3  +  +   1  +  +  2  +  +  3  +  +   1  +  +  2  +  +  3 
                                                                                
 e |---------------------------|---------------------------|--------------------
 B |---------------------------|---------------------------|--------------------
 G |---------------11----6-----|------7--6-----------------|--------------------
 D |------9-----9-----4--------|---7--------4-----7--------|--------------------
 A |---7-----7-----------------|5--------------------5-----|7--------7--------9-
 E |5--------------------------|---------------------------|--------------------
                                                                                

________________________________________________________________________________
INTERLUDE  

    1  +  +  2  +  +  3  +  +   1  +  +  2  +  +  3  +  +   1  +  +  2  +  +  3 

 e |---------------------------|---------------------------|--------------------
 B |---------------------------|---------------------------|--------------------
 G |---------------------------|---------------------------|--------------------
 D |------0--------------------|------0--------------------|--------------------
 A |---5-----------------------|---5-----------------------|7--------7--------9-
 E |5--------------------------|3--------------------------|--------------------


________________________________________________________________________________
VERSE

    1  +  +  2  +  +  3  +  +   1  +  +  2  +  +  3  +  +   1  +  +  2  +  +  3 

 e |---------------------------|---------------------------|--------------------
 B |---------------------------|---------------------------|--------------------
 G |---------------11----6-----|------7--6-----------------|--------------------
 D |------9-----9-----4--------|---7--------4-----7--------|--------------------
 A |---7-----7-----------------|5--------------------5-----|7--------7--------9-
 E |5--------------------------|---------------------------|--------------------


________________________________________________________________________________
BRIDGE

    1  +  +  2  +  +  3  +  +

 e |---------------------------|
 B |---------------------------|
 G |---------------------------|
 D |---------------------------|
 A |---------5--4-----------5--|
 E |---------------5--7--------|


 time signature = 12/8                      _
                                             |
    1  +  +  2  +  +  3  +  +  4  +  +       |
                                             |
 e |------------------------------------|    |
 B |------------------------------------|    | play
 G |------------------------------------|    | 11x
 D |------------------------------------|    |
 A |7-----------------5--4-----------5--|    |
 E |------5--7--------------5--7--------|    |
                                            _|

 
time signature =   3/8                4/4                     6/8       

                1  +  +     1  +  2  +  3  +  4  +     1  +  2  +  3  +

             e |---------| |------------------------| |-----------------|
             B |---------| |------------------------| |-----------------|
             G |---------| |------------------------| |-----------------|
             D |---9--7--| |---11----9-----7-----5--| |------10------10-|
             A |---------| |9-----7-----5-----3-----| |---8--------8----|
             E |---------| |------------------------| |6--------6-------|


________________________________________________________________________________
VERSE

 time signature =             9/8                                    6/8

    1  +  +  2  +  +  3  +  +   1  +  +  2  +  +  3  +  +     1  +  2  +  3  +

 e |---------------------------|---------------------------| |------------------
 B |---------------------------|---------------------------| |------------------
 G |---------------11----6-----|------7--6-----------------| |------------------
 D |------9-----9-----4--------|---7--------4-----7--------| |------10-------10-
 A |---7-----7-----------------|5--------------------5-----| |---8--------8-----
 E |5--------------------------|---------------------------| |6--------6--------


 time signature = 9/8

    1  +  +  2  +  +  3  +  +   1  +  +  2  +  +  3  +  +   1  +  +  2  +  +  3 

 e |---------------------------|---------------------------|--------------------
 B |---------------------------|---------------------------|--------------------
 G |---------------11----6-----|------7--6-----------------|--------------------
 D |------9-----9-----4--------|---7--------4-----7--------|------10------------
 A |---7-----7-----------------|5--------------------5-----|---8----------------
 E |5--------------------------|---------------------------|6-------------------




  ##############################################################################
  # KEY                                                                         
  #                                                                             
  #  time signature = 4/4                                                       
  #                                                                             
  #       1   +   2   +   3   +   4   +    1   +   2   +   3   +     < beat     
  #  1    lyrics sung first time                                                
  #  2    lyrics sung seccond time (1st repeat)                                 
  #  3    lyrics sung third time (2nd repeat)                                   
  #                                                                             
  #   e ||--------------------------------|--------------------------------|    
  #   B ||--------------------------------|--------------------------------|    
  #   G ||--------- 1 measure ------------|--------- 1 measure ------------|    
  #   D ||--------------------------------|--------------------------------|    
  #   A ||--------------------------------|--------------------------------|    
  #   E ||--------------------------------|--------------------------------|    
  #                                                                             
  #      ^ marks begining of song                                               
  #                                                                             
  #      1   +   2   +   3   +   4   +    1   +   2   +   3   +   4   +         
  #  1   lyrics sung first time                                                 
  #  2   lyrics sung seccond time (1st repeat)                                  
  #  3   lyrics sung third time (2nd repeat)                                    
  #                                                                             
  #   e |--------------------------------|--------------------------------||    
  #   B |--------------------------------|--------------------------------||    
  #   G |--------- 1 measure ------------|--------- 1 measure ------------||    
  #   D |--------------------------------|--------------------------------||    
  #   A |--------------------------------|--------------------------------||    
  #   E |--------------------------------|--------------------------------||    
  #                                                                             
  #   ^ tuning                                           marks end of song ^    
  #                                                                             
  #                                                                             
  #                                                                             
  ##############################################################################
		   
AcordesyTabs.com © 2008 Acordes y Tablaturas para guitarra. Tabs and Chords for guitar. Aviso Legal - Contacto
El uso de este sitio está sujeto a la aceptación de los términos y condiciones (23 usuarios online)